Mi Alma Te Seguirá (titanic), Celine Dion (tablatura)

Autor: cecirojas | 33983 visualizaciones



(Intro)
E) 1?3?5?3?1?8?6?5?1-----------
B)-------------------------------------- --3?3--1
G)--------------------------------------------------
A)---------------------------------------------------
E)---------------------------------------------------

E) 1?3?5?3?1?8?6?8?10?8?6?5--3
B)----------------------------------------------------------
G)---------------------------------------------------------
A)---------------------------------------------------------
E)----------------------------------------------------------

E) 1?1?1?1?0?1?1?0?1?3?5--3
B)---------------------------------------------------
G)---------------------------------------------------
A)---------------------------------------------------
E)---------------------------------------------------
Cada noche sueño contigo ,contigo

E) 1?1?1?1?0?1?3-----------------------
B)--------------------------------1-------------------
G)-----------------------------------------------------
A)-----------------------------------------------------
E)-----------------------------------------------------
sé que aun existes ,amor.


E) 1?1?1?1?0?1?1?0?1?3?5--3
B)---------------------------------------------------
G)---------------------------------------------------
A)---------------------------------------------------
E)---------------------------------------------------
Siempre en la distancia podremos amarnos

E) 1?1?1?1?0?1?3---------------------
B)--------------------------------1-------------------
G)---------------------------------------------------
A)---------------------------------------------------
E)---------------------------------------------------
sigues en mis sueños, amor

E) 1?0?1?3??8?6?5?3?5?6?5?3?1?0?1------
B)------------------1---------------------------------------------------3--1
G)---------------------------------------------------------------------------
A)---------------------------------------------------------------------------
E)---------------------------------------------------------------------------
Tu y yo eterna pasión 
siempre habrá  la esperanza, amor

E) 1?0?1?3??8?6?5?3?5?6?5?3?1?0?1?1?0?1?3?5?3--1
B)----------------------------------------------------------------------------------------------------
G)---------------------------------------------------------------------------------------------------
A)---------------------------------------------------------------------------------------------------
E)---------------------------------------------------------------------------------------------------
si,vez en donde tu estes
yo te llevo en el alma,mi alma
te seguirá

E) 1?3?5?3?1?8?6?5?1----------
B)----------------------------------------3?3--1
G)-------------------------------------------------
A)-------------------------------------------------
E)--------------------------------------------------

E) 1?3?5?3?1?8?6?8?10?8?6?5--3
B)----------------------------------------------------------
G)---------------------------------------------------------
A)---------------------------------------------------------
E)----------------------------------------------------------


E) 1?1?1?1?0?1?1?0?1?3?5--3
B)---------------------------------------------------
G)---------------------------------------------------
A)---------------------------------------------------
E)---------------------------------------------------
El amor nos llega 
y nunca nos deja

E) 1?1?1?1?0?1?3---------------------
B)--------------------------------1-------------------
G)---------------------------------------------------
A)---------------------------------------------------
E)---------------------------------------------------
sigues siendo luz en mi ser


E) 1?1?1?1?0?1?1?0?1?3?5--3
B)---------------------------------------------------
G)---------------------------------------------------
A)---------------------------------------------------
E)---------------------------------------------------
no podre olvidarte
dejar de amarte

E) 1?1?1?1?0?1?3---------------------
B)--------------------------------1-------------------
G)---------------------------------------------------
A)---------------------------------------------------
E)---------------------------------------------------
siempre extrañare tu gemes


E) 1?0?1?3??8?6?5?3?5?6?5?3?1?0?1------
B)------------------1---------------------------------------------------3--1
G)---------------------------------------------------------------------------
A)---------------------------------------------------------------------------
E)---------------------------------------------------------------------------
Tu y yo eterna pasión
siempre habrá la esperanza, amor

E) 1?0?1?3??8?6?5?3?5?6?5?3?1?0?1?1?0?1?3?5?3--1
B)------------------1---------------------------------------------------------------------------------
G)-----------------------------------------------------------------------------------------------------
A)-----------------------------------------------------------------------------------------------------
E)-----------------------------------------------------------------------------------------------------
si,vez en donde tu estes
yo te llevo en el alma,mi alma
te seguirá


E) 1?3?5?3?1?8?6?5?1-----------
B)-------------------------------------- --3?3--1
G)--------------------------------------------------
A)---------------------------------------------------
E)---------------------------------------------------

E) 1?3?5?3?1?8?6?8?10?12?13?14
B)-----------------------------------------------------------
G)----------------------------------------------------------
A)----------------------------------------------------------
E)-----------------------------------------------------------

Amor no siento temor
yo se bien que en mi alma estas

Tu y yo eterna canción
yo te llevo en el alma,mi alma te seguira
Uuuuhh.....





Comentarios del colaborador: Aquí les dejo el tema de titanic...espero les guste...

Calificar esta versión:
Aviso: Este fichero es trabajo propio de su transcriptor y representa su interpretación personal de la canción. El material contenido en esta página es para exclusivo uso privado, por lo que se prohibe su reproducción o retransmisión, así como su uso para fines comerciales.