Perros, Cartel De Santa (tablatura)

Autor: HOP | 27124 visualizaciones

El mismo riff de la guitarra se repite 
durante toda la canción y es en un solo
tono, no cambia


Intro
 
e------0-0-----0-0------0-0----|
B------1-1-----1-1------1-1----|
G------------------------------|
D------------------------------|
A-0--0----0--0-----0--0----0---|
E------------------------------|

e------0-0-----0-0------0-0----|
B------1-1-----1-1------1-1----|
G------------------------------|
D------------------------------|
A-0--0----0--0-----0--0--------|
E------------------------------|

e-----------------|
B-----------------|
G-----------------|
D-----------------|
A-0-0-0-0-0-0-0-0-|
E-----------------|

Am
donde estan perros
e------0-0-----0-0------0-0----|
B------1-1-----1-1------1-1----|
G------------------------------|
D------------------------------|
A-0--0----0--0-----0--0----0---|X n
E------------------------------|

quiero verlos saltando
denme mas perros
quiero verlos gritando
quiero mas perros
ya los oigo ladrando
q el cartel trae el mando
y venimos a acabarlos

Am
soy el aguila q deboro la serpiente
poderoso como una k-47, 
piensenlo 2 veces 
antes de intentar tocar a mi gente

Am
de donde vengo las cosas son muy diferentes
como el jefe de jefes 
tengo mis perros en la linea
van a llorar como niñas cuando sientan mis mordidas
aun no han hecho la tumbra para el real m-sia

Am
soy el maestro, el quinto elemento
ligero como el viento 
muchos me quieren ver muerto
pero lo siento soy mas duro q el cemento
y en la calle recibi el mejor entrenamiento

Am
donde estan perros
quiero verlos saltando
denme mas perros
quiero verlos gritando
quiero mas perros
ya los oigo ladrando
q el cartel trae el mando
y venimos a acabarlos

Am
grito los microfonos como plastico en el fuego
mi voz es tan caliente q podria fundir el hierro
nunca juego para mi esta es cosa seria
pero acabarlos es tan facil como abrirle a tus hermanas la piernas

Am
no se pierdan q mi lengua les dara su merecido
mientras sus novias juegan 6 pulgadas debajo de mi ombligo
jodido en los bolsillos pero rico en mi lenguaje
mis enemigos tiemblan cuando sienten mi coraje
no se rajen para q se echan para atras?
el vikingo puso el ritmo y yo puse lo demás
soy el Sar y la calle es mi palacio
como la mala hierba cubro todos los espacios

Am
donde estan perros
quiero verlos saltando
denme mas perros
quiero verlos gritando
quiero mas perros
ya los oigo ladrando
q el cartel trae el mando
y venimos a acabarlos

se rompieron las cadenas
y ando buscando a mis perras
se rompieron las cadenas
y ando buscando a mis perras
se rompieron las cadenas
si te entrenas tal vez puedas llegar a donde me encuentro
pero advierto q soy como el tiempo asi q no me detengo
entretengo a tu madre cuando tu padre no esta
y ahora ladren pq el cartel acaba de llegar

donde estan perros
quiero verlos saltando
denme mas perros
quiero verlos gritando
quiero mas perros
ya los oigo ladrando
q el cartel trae el mando
y venimos a acabarlos


Calificar esta versión:
Aviso: Este fichero es trabajo propio de su transcriptor y representa su interpretación personal de la canción. El material contenido en esta página es para exclusivo uso privado, por lo que se prohibe su reproducción o retransmisión, así como su uso para fines comerciales.