Coco Rapado, Cartel De Santa (tablatura)

Autor: oscarr | 26972 visualizaciones

e---------------------------
B---------------------------
G---------------------------       esto se repite
D---------------------------             3 veces y luego       
A-------------5--5--0-----        sigue lo de abajo
e--0--0--7--------------0-

e-------------------------------
B-------------------------------
G-------------------------------       despues de haber 
D-------------------------------        tocado esto 
A-------------5--5--5--0-----      ya empiezan a cantar
e--0--0--7------------------0-

Comentarios del colaborador: ojala les haya gustado

Calificar esta versión:
Aviso: Este fichero es trabajo propio de su transcriptor y representa su interpretación personal de la canción. El material contenido en esta página es para exclusivo uso privado, por lo que se prohibe su reproducción o retransmisión, así como su uso para fines comerciales.