Aqui Me Quedo, Carlos Ramon Fernandez (tablatura)

Autor: nestor123 | 16061 visualizaciones



1:-6-4-2-1-1-2-4-7-6-4-2-2-4-6-6-4-2---6-4-6---6-4-6---------------
2:-----------------------------------6-------6-------4-------------
3:-----------------------------------------------------------------
4:-----------------------------------------------------------------
5:-----------------------------------------------------------------
6:-----------------------------------------------------------------

1:-9-9-9-9-9----11-9-----------------------------------------------
2:-----------12------12-11-9-11-0---6-9-9-8-9-0---7-11-11-10-11----
3:--------------------------------7-------------8------------------
4:-----------------------------------------------------------------
5:-----------------------------------------------------------------
6:-----------------------------------------------------------------

1:-------------------0-8-10-11-------------------------------------
2:-0---6-9-9-8-9-0-9-----------------------------------------------
3:---7-------------------------------------------------------------
4:-----------------------------------------------------------------
5:-----------------------------------------------------------------
6:-----------------------------------------------------------------





Comentarios del colaborador: espero que les aya gustado y servido desde saldungaray gracias

Calificar esta versión:
Aviso: Este fichero es trabajo propio de su transcriptor y representa su interpretación personal de la canción. El material contenido en esta página es para exclusivo uso privado, por lo que se prohibe su reproducción o retransmisión, así como su uso para fines comerciales.