La Vinotinto, Caramelos De Cianuro (tablatura)

Autor: Mauro16 | 19596 visualizaciones



Bueno primero que nada tengo que decir: esta cancion la saque a puro oido por que me 
canse de buskr la tablatura por internet y no aparecia en ninguna pag -.- por eso 
dedique 9 min de mi vida a sacarla para los demas si tengo alguna nota mala diganmelo (y)


Intro:


                           (x2)
|--------------------------------------------------------------|
|--------------------------------------------------------------|
|--------------------------------------------------------------|
|-2-2-2---------5-5---5-7-7-7----5-5-5--10-10--5-7-------------|
|-2-2-2---5-5-5-3-3-5-3-5-5-5----3-3-3---8--8--3-5-5-5-5-------|
|-0-0-0---3-3-3-----3------------------------------3-3-3-------|


Esta parte del intro se repite hasta que dice:


y ya que te lo digo con el pepsi, pepsi
igual que entraste con los vagos y su sexy baby...


Despues en la parte que dice (I estrofa):


Y ahora es lo mismo
pero distinto...


Va esto:



                         (x2)
|-------------------------------------------------------------|
|-------------------------------------------------------------|
|-------------------------------------------------------------|
|-10-10--5-5--------------------------------------------------|
|--8--8--3-3-5-5--3-3-3-3-------------------------------------|
|------------3-3--1-1-1-1-------------------------------------|


Coro:



La vinotinto que viva, que viva,
la vinotinto que viva, que viva,
la vinotinto que viva, que viva,
la vinotinto que viva, que viva



                            (x4)
|-------------------------------------------------------------|
|-------------------------------------------------------------|
|-------------------------------------------------------------|
|-----------7-7-7-------------5-5-5---------------------------|
|-7-7-7-7-7-5-5-5---5-5-5-5-5-3-3-3---------------------------|
|-5-5-5-5-5---------3-3-3-3-3---------------------------------|




Bueno eso es todo lo demas se repite

II estrofa va igual que la I 




Bueno si tengo algo equivocado ya saben no duden en decirlo!!!



Cualquier cosa mi msn es:

[email protected]


Sldos ds Vn!





Calificar esta versión:
Aviso: Este fichero es trabajo propio de su transcriptor y representa su interpretación personal de la canción. El material contenido en esta página es para exclusivo uso privado, por lo que se prohibe su reproducción o retransmisión, así como su uso para fines comerciales.