Incertidumbre, Caramelos De Cianuro (tablatura)

Autor: Anónimo | 17233 visualizaciones



   hola, pido disculpas por que me equivoque en la que subi 
 anteriormente pero aqui esta correcta.


ESTE FUE UNO DE MIS ERRORES

intro:

e--------------------------------2-2-2-2-2-2-2-2-2-2-2-2-
B-5-5-5---------------------2-2-2------------------------
G------4-4-4-4-4-4-4-4-4-4-4-----------------------------
D--------------------------------------------------------
A--------------------------------------------------------
E--------------------------------------------------------

guitarra de fondo: F - Gm


verso:

F              Gm
labios amargos tus ojos tristes
F               Gm
tu cuello largo como de cisne
F            Gm
alma perdida angel caido
F             Gm
tu media vida tu siempre has sido


e--------------------------------------
B----6----6-----8--0-------------------
G------------7-------------------------  x4
D--7---8-------------------------------
A--------------------------------------
E--------------------------------------


F               Gm
su cuerpo usado historia vieja
F           Gm
???? labios en una oreja
F                  Gm
siente el murmullo de nuestra sangre
F              Gm
los riachuelos que juntos arden



ESTE ES EL OTRO EN VEZ DE ESCRIBIR DO(C) ESCRIBI RE(D)


coro:

Bb
incertidumbre de un arroyo
Gm                   D
de imposibles que tu haces visible
Cm                          Eb
para hacerme sentir que aun estoy vivo 
                  D
que el destino es mi amigo

Bb
incertidumbre que una noche 
Gm                      D
cualquiera en una barra me espera
Cm                            Eb
aun que se que al final de la madrugada
      D
nunca queda nada



e--------------------------------------
B----6----6-----8--0-------------------
G------------7-------------------------  x4
D--7---8-------------------------------
A--------------------------------------
E--------------------------------------



F               Gm
entre lo oscuro ?????? adentro
F               Gm
??????????????  yo me alimento
F                 Gm
hasta mi infancia de pronto vuelvo
F                Gm
por la fragancia que dan tus senos



coro:

Bb
incertidumbre de un arroyo
Gm                   D
de imposibles que tu haces visible
Cm                          Eb
para hacerme sentir que aun estoy vivo 
                  D
que el destino es mi amigo

Bb
incertidumbre que una noche 
Gm                      D
cualquiera en una barra me espera
Cm                            Eb
aun que se que al final de la madrugada
      D
nunca queda nada



AHORA SI ESTA BIEN DISCULPEN. CHAO





Calificar esta versión:
Aviso: Este fichero es trabajo propio de su transcriptor y representa su interpretación personal de la canción. El material contenido en esta página es para exclusivo uso privado, por lo que se prohibe su reproducción o retransmisión, así como su uso para fines comerciales.