Dolor Y Pasion, Caramelos De Cianuro (acordes)

Autor: mariajosem. | 38817 visualizaciones

cdemg


 Intro1: 

E |---------------------------------------------------------------| 
B |---12------12------13------13------12------12--------13--------| 
G |-------12------12------12------12------12------12----12--------| 
D |---------------------------------------------------------------| 
A |---------------------------------------------------------------| 
E |---------------------------------------------------------------| 

Intro2:  [Acompañado de las notas GCGD]
E |-----------------------------------------------------------------------| 
B |---12------12------13------13------12------12------10------10----------| 
G |-------12------12------12------12------12------12------12------12------| 
D |-----------------------------------------------------------------------| 
A |-----------------------------------------------------------------------| 
E |-----------------------------------------------------------------------| 

E |-----------------------------------------------------------------------| 
B |---12------12------13------13------12------12------10------------------| 
G |-------12------12------12------12------12------12------12---12---------| 
D |-----------------------------------------------------------------------| 
A |-----------------------------------------------------------------------| 
E |-----------------------------------------------------------------------|



G    C        G                              D
Dolor, eres todo lo que tengo, tuve o haya tenido
G    C        G                              D
Yo te pido, que no me hagas nunca más sentir dolor
G    C        G                              D
Dolor se separa del placer por una línea delgada  [se toca el Intro2 en esta estrofa]
G    C        G                              D
Otra velada confrontado con la autoflagelación  [se toca el Intro2 en esta estrofa]


Coro: 

G                            D 
Yo no tengo nada mas que ofrecer
    Em                         C
Conmigo tienes solo lo que vez
G                  D                  Em                 C
Desde hace un tiempo quiero ser un poco mas sincero

G                            D 
Todos tenemos algo que esconder 
Em                     C
Si te portas bien te dejo ver 
G                  D                  Em                         
Solamente el tiempo pudo hacerme un poco más agudo






Se toca el Intro2:  [Acompañado de las notas GCGD]


G    C        G                              D
Pasión, cuanto tiempo dejaras que esté mi cama vacía
G    C        G                              D
Otro día que tendré que soportar sin ti pasión
G    C        G                              D
Pasión no se como ni porque no entiendo dónde ni cuando [se toca el “Intro2” en esta estrofa]
G    C        G                              D
Esperando consolarme con la autosatisfacción [se toca el “Intro2” en esta estrofa]


G                C                       G                              D
Dolor y pasión, el odio el amor, pensar con la mente o el corazón [se toca el “Intro2” en esta estrofa]
G                C                       G                              D
Arriba y abajo, lo bueno lo malo, izquierda derecha, tú y yo [se toca el “Intro2” en esta estrofa]



Coro: 

G                            D 
Yo no tengo nada mas que ofrecer
    Em                         C
Conmigo tienes solo lo que vez
G                  D                  Em                 C
Desde hace un tiempo quiero ser un poco mas sincero

G                            D 
Todos tenemos algo que esconder 
Em                     C
Si te portas bien te dejo ver 
G                  D                  Em                         
Solamente el tiempo pudo hacerme un poco más agudo


Solo:  CEmD  [x 4 veces] 


Coro: 

G                            D 
Yo no tengo nada mas que ofrecer
    Em                         C
Conmigo tienes solo lo que vez
G                  D                  Em                 C
Desde hace un tiempo quiero ser un poco mas sincero

G                            D 
Todos tenemos algo que esconder 
Em                     C
Si te portas bien te dejo ver 
G                  D                  Em                         C
Solamente el tiempo pudo hacerme un poco más agudo


Notas usadas:

G:  320033
C:  032010 
D:  000232
Em: 022000
 





Comentarios del colaborador: lacuerda.net

Calificar esta versión:
Aviso: Este fichero es trabajo propio de su transcriptor y representa su interpretación personal de la canción. El material contenido en esta página es para exclusivo uso privado, por lo que se prohibe su reproducción o retransmisión, así como su uso para fines comerciales.