Delineador, Caramelos De Cianuro (tablatura)

Autor: Omarsb | 44955 visualizaciones



INTRO
E ---------------------------
B ---------------------------
G ---------------------------
D -5-5-5-5-5-5-5-5-5-5-5-5---
A -5-5-5-5-5-5-5-5-5-5-5-5---
E -3-3-3-3-3-3-3-3-3-3-3-3---

   Ahora  soy  yo quien te dejo
E ----------------------------------------------------------
B ----------------------------------------------------------
G -------------------------4-4-4-4-4-4-4-4-4-4-4------------
D -5-5-5-5-5-5-5-5-5-5-5-5-4-4-4-4-4-4-4-4-4-4-4------------
A -5-5-5-5-5-5-5-5-5-5-5-5-2-2-2-2-2-2-2-2-2-2-2-2p4h2-2-0--
E -3-3-3-3-3-3-3-3-3-3-3-3----------------------------------

   Eso  nos va a  dejar parejos  por  una  vez
E ----------------------------------------------------------
B ----------------------------------------------------------
G -------------------------4-4-4-4-4-4-4-4-4-4-4------------
D -5-5-5-5-5-5-5-5-5-5-5-5-4-4-4-4-4-4-4-4-4-4-4------------
A -5-5-5-5-5-5-5-5-5-5-5-5-2-2-2-2-2-2-2-2-2-2-2------------
E -3-3-3-3-3-3-3-3-3-3-3-3----------------------------------

     maaaaaaaas
E ----------------------
B ----------------------
G -5-5-5-5-5-5-5-5-5----
D -5-5-5-5-5-5-5-5-5----
A -3-3-3-3-3-3-3-3-3----
E ----------------------


No es necesario hacer un drama
En la frontera de la cama
Pues ya sabemos terminar

[Coro]

SOL                 RE
Hay una fuente que nunca se agota

SIm                  DO
Cuando me mientes de tus ojos brotan

LAm                 MIm
Lagrimas de delineador

SOL                 RE
El silencio suele ser mejor

SOL                  RE
Como tormenta que nunca se acaba

SIm                   DO
Como violenta lluvia de lava

LAm              Min
Dejas salir tu dolor

SOL                 RE
Libéralo de tu interior


( ( ( aqui hacemos lo mismo del principio ) ) )
-(El bajo juega un poco pero la guitarra sigue igual)-

No entiendo como no se pudooo...

Solo entre sabanas desnuuudos...

Nos llevábamos bieeen...

No nos pudimos entender

No lo pudimos vencer

No se si es que nunca estuvo allí
Si la magia se fue
No se...

[Coro]
Hay una fuente que nunca se agota
Cuando me mientes de tus ojos brotan
Lagrimas de delineador
El silencio suele ser mejor
Como tormenta que nunca se acaba
Como violenta lluvia de lava
Dejas salir tu dolor
Libéralo de tu interior


        DO              LAm
Y si te vas... déjame atrás...
        DO             RE
Que no pueda hacerte daño nunca mas...


((( Luego se toca este punteo )))

E ---7---7-------7---7-------7---7-------------
B -8---8---8---8---8---7---7---7---8-10-12-10--
G ---------------------------------------------
D ---------------------------------------------
A ---------------------------------------------
E ---------------------------------------------


[Coro]
Hay una fuente que nunca se agota
Cuando me mientes de tus ojos brotan
Lagrimas de delineador
El silencio suele ser mejor
Como tormenta que nunca se acaba
Como violenta lluvia de lava
Dejas salir tu dolor
Libéralo de tu interior

Y si te vas... déjame atrás...





Comentarios del colaborador: Aki les dejo esta buena pieza espero q les [email protected]

Calificar esta versión:
Aviso: Este fichero es trabajo propio de su transcriptor y representa su interpretación personal de la canción. El material contenido en esta página es para exclusivo uso privado, por lo que se prohibe su reproducción o retransmisión, así como su uso para fines comerciales.