Querer Querernos, Canserbero (tablatura)

Autor: [anoni]davip[anoni] | 35361 visualizaciones

QUERER QUERERNOS ( VERSION ACUSTICA) CANVIVE¡

Logre construir algunas partes de la canción, me faltan algunas correcciones y 1 seccion que se repite no mucho en la canción pero es también muy importante

Afinacion:
E 
A#
F# 
C#
G#
D#  


E -|-------------|
A#-|-------------|
F#-|----------9--|
C#-|-------------|
G#-|-----7-------|
D#-|--0----------|



E -|------------------------------------------|
A#-|------------------------------------------|
F#-|----7-/9--9-/11--11-/12--12-/14--14-/16---|
C#-|--9---------------------------------------|
G#-|------------------------------------------|
D#-|------------------------------------------|

E -|--------------------------------------------|
A#-|--------------------------------------------|
F#-|--14-12P14---11P12---9P11---7P9--7-6----9---|
C#-|--------------------------------------9-----|
G#-|--------------------------------------------|
D#-|--------------------------------------------|

E -|-----------------------------------------7------7-------------8-7-------------------|
A#-|----8----8-7----7-10------10-8-------8------------10-------10----10--------8--7-----|
F#-|--9----9-------9--------9----------9----------9----------9-------------7H9----------|
C#-|-----9-------9--------9----------9----------9----------9------------9---------------|
G#-|------------------------------------------------------------------------------------|
D#-|------------------------------------------------------------------------------------|
         

Se repite
E -|-------------------------------------------------------------------------------|
A#-|-------------------------------------------------------------------------------|
F#-|----7-/9--9-/11--11-/12--12-/14--14-14-14--12-12--14/16--14--12P14--11P12------|
C#-|--9----------------------------------------------------------------------------|
G#-|-------------------------------------------------------------------------------|
D#-|-------------------------------------------------------------------------------|


E -|-------------------------------------------------------------------------------------------------------|
A#-|-------------------------------------------------------------------------------------------------------|
F#-|--14/16--14-12P14--11P12----14/16---14-1214--11P12----14/16---14-12P14--11P12--9P11--7P9-7-6----9------|
C#-|----------------------------------------------------------------------------------------------9--------|
G#-|-------------------------------------------------------------------------------------------------------|
D#-|-------------------------------------------------------------------------------------------------------|


Esto es todo, faltan algunas partes pero esta es la mayoría de la canción espero la disfruten
By: David Pabon

Comentarios del colaborador: si tienen alguna parte faltante de la canción o, la canción completa enviármela a este correo para corregir la tablatura email: da_vip99@hotmail.com

Calificar esta versión:
Aviso: Este fichero es trabajo propio de su transcriptor y representa su interpretación personal de la canción. El material contenido en esta página es para exclusivo uso privado, por lo que se prohibe su reproducción o retransmisión, así como su uso para fines comerciales.