En Alta Mar, Canciones Populares (tablatura)

Autor: Anónimo | 40044 visualizaciones

e||------0--2--4--|--4--5--4--2--0--4--0--|-----0--2--4--4----|
B||---0-----------|-----------------------|--0----------------|
G||·--------------|-----------------------|-------------------|
D||·--------------|-----------------------|-------------------|
A||---------------|-----------------------|-------------------|
E||---------------|-----------------------|-------------------|

e||----4--5--4--2--0--2---|------2--2--4--4--5--5------|
B||-----------------------|---0------------------------|
G||-----------------------|----------------------------|
D||-----------------------|----------------------------|
A||-----------------------|----------------------------|
E||-----------------------|----------------------------|

e||----5--7--5--4--2--5--4---|---4--5--4--2--0--4--2---|
B||--------------------------|-------------------------|
G||--------------------------|-------------------------|
D||--------------------------|-------------------------|
A||--------------------------|-------------------------|
E||--------------------------|-------------------------|

e||---2--4--2--0-----0--|--7-7-7-7--4-4-4-4--0-0-0-0--||
B||---------------4-----|-----------------------------||
G||---------------------|----------------------------·||
D||---------------------|----------------------------·||
A||---------------------|-----------------------------||
E||---------------------|-----------------------------||



SALU2 A TODOS , EN ESPECIALA LOS CRXZADOS DE CHILE!!!
Aviso: Este fichero es trabajo propio de su transcriptor y representa su interpretación personal de la canción. El material contenido en esta página es para exclusivo uso privado, por lo que se prohibe su reproducción o retransmisión, así como su uso para fines comerciales.

Comentarios en Facebook: