Payaso Pinplin, Canciones Infantiles (tablatura)

Autor: Anónimo | 29573 visualizaciones

e|-----------1-0----|
B|--1-1-3-1---------|
G|------------------|
D|------------------|
A|------------------|
E|------------------|

el-pa-ya-so-plin-plin




e|------------3-1---|
B|--1-1-3-1---------|
G|------------------|
D|------------------|
A|------------------|
E|------------------|

se-pin-chó-la-na-riz



e|------5-3-1-0-----|
B|--1-1---------3---|
G|------------------|
D|------------------|
A|------------------|
E|------------------|

y-con-un-es-tor-nu-do



e|--3-3-1--3-1------|
B|--------3---------|
G|------------------|
D|------------------|
A|------------------|
E|------------------|

hi-zo-fuer-te-a-chís
Calificar esta versión:
Aviso: Este fichero es trabajo propio de su transcriptor y representa su interpretación personal de la canción. El material contenido en esta página es para exclusivo uso privado, por lo que se prohibe su reproducción o retransmisión, así como su uso para fines comerciales.