El Pollito Glu, Canciones Del Jardin (tablatura)

Autor: reichy | 27939 visualizaciones

Estaba el pollito glu
Comiendo comiendo arroz
El arroz estaba caliente
Y el pollito se quemo

La culpa la tienes tuuuu
La culpa la tengo yoooo
Por no comer con cuchara
Con cuchillo y tenedor


------------------------------------------------------------

--------1-1-1-----------1-------1-1-1--------------0----
       tabaelpo       glu      miendoco          rroz
--0------------- 2-0----------0-------------2-0-----------
  Es            llito        co           miendoa
------------------------------------------------------------

------------------------------------------------------------

------------------------------------------------------------



-----------------------------------------------------------

--------0-0-0-----------0-0----------------------0-1----
      rrozesta         liente                   quemo
--0-0------------ 2-0----------0-0-0-0-2----------------
 El a            baca        yelpollitose
------------------------------------------------------------

------------------------------------------------------------

------------------------------------------------------------


Se repite todo igual con la segunda parte. Espero
que os sea de ayuda y os guste.



Calificar esta versión:
Aviso: Este fichero es trabajo propio de su transcriptor y representa su interpretación personal de la canción. El material contenido en esta página es para exclusivo uso privado, por lo que se prohibe su reproducción o retransmisión, así como su uso para fines comerciales.