Azerrin, Azerran, Canciones Del Jardin (tablatura)

Autor: turulete | 35612 visualizaciones

E|-------------------|---------------------|
B|-------------------|---------------------|
G|-------0-----------|---------------------|
D|-0--0------0--0----|-0--0--2--0--2--4--5-|
A|-----------------2-|---------------------|
E|-------------------|---------------------|


E|-------------------|------------------------|
B|-------------------|------------------------|
G|-------0-----------|------------------------|
D|-0--0------0--0----|-0--0--2--0--2--4--5--5-|
A|-----------------2-|------------------------|
E|-------------------|------------------------|


E|---------------------|---------------------|
B|---------------------|---------------------|
G|-------0--0----------|---------------------|
D|-0--0--------0--0----|-0--0--2--0--2--4--5-|
A|-------------------2-|---------------------|
E|---------------------|---------------------|
Calificar esta versión:
Aviso: Este fichero es trabajo propio de su transcriptor y representa su interpretación personal de la canción. El material contenido en esta página es para exclusivo uso privado, por lo que se prohibe su reproducción o retransmisión, así como su uso para fines comerciales.