Enamorate De Mi, Camilo Sesto (acordes)

Autor: Anónimo | 31233 visualizaciones

aambe
 Intro:

e-2-0-2-0--5--4-5-4---9--7-9-7-----------
b--------0---------5----------5-7--5-7-5-
g----------------------------------------
D----------------------------------------
A----------------------------------------
E----------------------------------------

       E           E7+            A      Am   E
Perdoname,si te ofendi,al pedirte si querias compartir
     A     B           E
tu cuerpo,cama junto a mi.
       E             E7+           A      Am       
Antes de ti,mi vida fue,como un volcan apagado,como un
     E                A      B           E
gavilan atado,como un sueño que quiere vivir.
CORO:
     B                                    A        E
    Escucha mi razon y abrete al amor,Enamorate de Mi 
     B                              A         E
    Deja que yo sea todo para ti,Enamorate de Mi 
     A                                 E
    Quiero ser ladron de tu corazon,Enamorate de Mi 
     B                                    A         E
    Estoy enamorado como un loco de ti,Enamorate de mi.

Despues de ti,no mirare hacia atras.No habra un lugar,

jamas,para nadie mas.Pero,por favor,enamorate de mi.

CORO-Punteo_CORO-

Siiiiiiii,Enamorate de mi/Siiiiii,Enamorate de Mi 

Quiero ser ladron de tu corazon,Enamorate de Mi 

Estoy enamorado como un loco de ti,Enamorate de mi.CORO

Punteo:
e-----------------7---------------------7,7-9-12-7/9----------
b-9[10]9----7-7[9]-10------10-9-10-10/12------------7-9-7-----
g----------9---------9-----------------------------------9-8-9
D9------9-9-----------9/10------------------------------------
A-------------------------------------------------------------
E-------------------------------------------------------------

10/12:pisando la cuerda en traste10.deslizar el dedo al 12
9[10]9:Pisando traste 9,estira la cuerda[a la nota del 10] 
       y vuelve al 9.
E7+:021100

Fuente original: LaCuerda
Colaborador original: Sergio Arnaez Muñoz [dinosam9@hotmail.com]
Calificar esta versión:
Aviso: Este fichero es trabajo propio de su transcriptor y representa su interpretación personal de la canción. El material contenido en esta página es para exclusivo uso privado, por lo que se prohibe su reproducción o retransmisión, así como su uso para fines comerciales.