Fantasia O Realidad, Callejeros (tablatura)

Autor: Anónimo | 44095 visualizaciones

Intro: (Fm A#m C Fm) x 2

 e|-13-13-13-13-13-13-12-13-13p14-13-12-13--13-13-13-12-12-12-10-12-12p13-|
 B|-----------------------------------------------------------------------|
 G|-----------------------------------------------------------------------| REPITE X 2
 D|-----------------------------------------------------------------------|
 A|-----------------------------------------------------------------------|
 E|-----------------------------------------------------------------------|


riff 1  e|--------------|
 	B|--------------|
 	G|--------------|
	D|-6--5-6-7--9--|
	A|--------------|
 	E|--------------|

riff 2  e|--------------|
 	B|--------------|
 	G|--------------|
	D|-6--5-6-5--3--|
	A|--------------|
 	E|--------------|



   Fm                      A#m
A veces, las lluvias sólo mojan -pensó-
    C                       Fm
El héroe del fuerte en esos años.  riff 1

Salir de la tumba y no tener vocación
a cualquier yugo que no fuera de caño.  riff 2

   Fm                  A#m
Ansiosas melodías tarareaba;
    D#                    G#-C
canciones de sables sin remache.
      Fm           A#m
Sus acciones en la vida levantaron
               C
cuando pudo comerse a la hija,
          Fm
del honorable senador.

Una nena enroscada en los negocios de papá,
merquera y sutil pero fiestera  riff 1
se conocieron trabajando en casanova:
Ella vendiendo y El haciendo billeteras  riff 2
con brazos abiertos a este ladri,
el partido lo recibió gustoso:
Secretario de pasta en la semana,
se hizo mulo de todos los poderosos.

Fm              A#m
Fantasía y Realidad,
           C            Fm
a esta historia le da igual.

solo:

 e|--------------------------|
 B|--------------------------|
 G|-----0-1-0----------------| REPITE X 2
 D|---3-------3---3-2-0-2-3--|
 A|-3-----------4------------|
 E|--------------------------|

El negocio fue creciendo para todos,
para todos menos para los que esperan  riff 1
para esos que transpiran de impaciencia,
los  sin zapatos que no pasan a esta fiesta.  riff 2
Los reyes y papá noel no existen
y ala gente sólo la ayuda la gente.
No existe más iluso que el iluso
que aún espere que la mano,
se la de el que lo gobierne.

Fuente original: LaCuerdaColaborador original: crescimbeni nicolas
[cnico206@hotmail.com]       
Aviso: Este fichero es trabajo propio de su transcriptor y representa su interpretación personal de la canción. El material contenido en esta página es para exclusivo uso privado, por lo que se prohibe su reproducción o retransmisión, así como su uso para fines comerciales.

Comentarios en Facebook: