Dog:god, Cafe Tacuba (tablatura)

Autor: Anónimo | 37550 visualizaciones



Fig 1

e---------------------------------------------------------
B---------------------------------------------------------
G---------------------------------------------------------          
D------------------2----------2-----0--------------2------
A-------------4---------4---------------------2-----------
E-------2-------------------------------------------------

   Se repite cuatro veces  y entra la letra


senti una mordida fatal
en mi cuello en la llugular
mi sangre corre ya,                          Fig 1
por todo el piso

veo a mi cuerpo fallecer 
en los colmillos de otro ser           
que se ve igual que yo
pero está vivo


 Fig 2

e-----------------------5--------
B----------------------4---------
G---------------------5----------


me elevo al cielo empiezo a ver             
mi vida lleno de placer
amores que sentí                                        Fig 2
y tambien odio


Fig 1      4  veces



     Fig 3     con distorsión
e------------------------------------------------------
B------------------------------------------------------
G------------55555555555555555--7777777777777777777------  
D------------55555555555555555--7777777777777777777-----     6 veces 
A------------33333333333333333--5555555555555555555-----  
E------------------------------------------------------

En la tercera vez  entra esto con otra guitarra:


Fig  4  con distorsión
 e-------------------------------------------------------------------
 B-------------------------------------------------------------------
 G-----7---7-----9--9-----7p9-----------7--7----9--9----7p9---
 D-------------------------------------------------------------------


llegando al cielo al fin sabré 
si dios es un perro también
si ladra como yo
y si pelea muy bien                            Fig  2
con otros dioses que
se ponen bravos sin saber por que.

Fuente original: LaCuerda
Colaborador original: Marcoz [marcoolz@icqmail.com]





Calificar esta versión:
Aviso: Este fichero es trabajo propio de su transcriptor y representa su interpretación personal de la canción. El material contenido en esta página es para exclusivo uso privado, por lo que se prohibe su reproducción o retransmisión, así como su uso para fines comerciales.