Mi Bombom, Cabas (acordes)

Autor: -CrisTian- | 41174 visualizaciones

asosmdsosme
  INTRO


E | -----9-9-9-9-9-9----6------6-------------11-11-11-11-11-9----------------
B | -----6-6-6-6-6-6----6---9-----9---6------8--8--8--8--8--6----------------
G | -----------------------------------------8--8--8--8--8--6----------------
D | ----------------------------------------------------------6--8-----------
A | -------------------------------------------------------------------------
E | -------------------------------------------------------------------------




 A#m                      E#
 Asi como llegas te vas bom bon
                            A#m
 bonita hora que te da por llorar
                          E#
 llorate esto llora este dolor
                                A#m
 dolores vienen y van pero no el amor


                              E#
 Te vienes encima de mi vida bom bon
                       A#m 
 bonita manera de llegar
                             E#
 llegaras a ver tu boca crecer
                               A#m
 creceran las mentiras que me das


                            E#
 Y algo si que me supiste dar
                                   A#m 
 darme en la cabeza que ya esta incha
                            E#
 incha del planeta incha del Sol 
                                  A#m
 sueltame las riendas de aqui me largo


                               D#m
 y hoy el teléfono no es ring ring
                         A#m
 y mi corazón no da ton ton
                           E#7
 y mis paso no tinen son son
                             A#m
 ya no eres mi bom bon bom bon


                                     D#m
 Y el teléfono teléfono no es ring ring
                        A#m  
 y mi corazón no da ton ton
                        E#7
 y mis paso no tiene son son
                            A#m
 ya no eres mi bom bon bom bon 



 SE REPITE EL INTRO...
 
   
 ya no eres mi bom bon bom bon 
 
 ya no eres mi bom bon bom bon 
 
 ya no eres mi bom bon bom bon 
 
 ya no eres mi bom bon bom bon 

                                           
E | -------------9-----13---------9---13--------9---13--------9---12----------
B | -------9--11---11-------11------------11------------11--------------------
G | ----10--------------------------------------------------------------------
D | --------------------------------------------------------------------------
A | --------------------------------------------------------------------------
E | --------------------------------------------------------------------------
E | -----17--------17-----17----17---------17----------9-------9-------9------
B | -------------------------------------------------------11------11------11-
G | --------------------------------------------------------------------------
D | --------------------------------------------------------------------------
A | --------------------------------------------------------------------------
E | --------------------------------------------------------------------------



E | --9------9------11--------11--------11--------11----11------9-------9-----
B | ----11-----11-------13--------13--------13-------13----13-------11------11
G | --------------------------------------------------------------------------
D | --------------------------------------------------------------------------
A | --------------------------------------------------------------------------
E | --------------------------------------------------------------------------



E | --9-------9-----9-----11--------11--------11--------11----11--------------
B | ------11----11-----11-----13--------13--------13-------13----13--11------
G | --------------------------------------------------------------------------
D | --------------------------------------------------------------------------
A | --------------------------------------------------------------------------
E | --------------------------------------------------------------------------


                              E#
 Te vienes encima de mi vida bom bon
                       A#m 
 bonita manera de llegar
                             E#
 llegaras a ver tu boca crecer
                               A#m
 creceran las mentiras que me das


                            E#
 Y algo si que me supiste dar
                                   A#m 
 darme en la cabeza que ya esta incha
                            E#
 incha del planeta incha del Sol 
                                  A#m
 sueltame las riendas de aqui me largo


                               D#m
 y hoy el teléfono no es ring ring
                         A#m
 y mi corazón no da ton ton
                           E#7
 y mis paso no tinen son son
                             A#m
 ya no eres mi bom bon bom bon


                                     D#m
 Y el teléfono teléfono no es ring ring
                        A#m  
 y mi corazón no da ton ton
                        E#7
 y mis paso no tiene son son
                            A#m
 ya no eres mi bom bon bom bon 



 ya no eres mi bom bon bom bon 
 
 ya no eres mi bom bon bom bon 
 
 ya no eres mi bom bon bom bon 
 
 ya no eres mi bom bon bom bon ...
Calificar esta versión:
Aviso: Este fichero es trabajo propio de su transcriptor y representa su interpretación personal de la canción. El material contenido en esta página es para exclusivo uso privado, por lo que se prohibe su reproducción o retransmisión, así como su uso para fines comerciales.