Pirates, Bullets And Octane (tablatura)

Autor: mettalhead | 26869 visualizaciones



-------------------------------------------------------------
               Pirates - Bullets And Octane
-------------------------------------------------------------

Distorcion: Estandar

intro/riff:

p.m in intro
e|-----------------------------------------|
B|-----------------------------------------|
G|-5-5-5-55------------8-8-8-88------------|
D|-5-5-5-55--6-6-6-66--8-8-8-88--8-8-8-88--|x2
A|-3-3-3-33--6-6-6-66--6-6-6-66--8-8-8-88--|
E|-----------4-4-4-44------------6-6-6-66--|
                                     |1st time-|


verso:
e|--------------------------------------------------|
B|--------------------------------------------------|
G|----5-5--8--8-----------5-5--8--8-----------------|
D|----5-5--8--8--6--6--5--5-5--8--8--6--6--5--------|
A|----3-3--6--6--6--6--5--3-3--6--6--6--6--5--------|
E|---------------4--4--3-------------4--4--3--------|


verso 2:

e|------------------------------|
B|------------------------------|
G|----5-5----8--8---------------|
D|----5-5----8--8----6--6----8--|
A|----3-3----6--6----6--6----8--|
E|-------------------4--4----6--|


chorus:

e|------------------|
B|------------------|
G|----8-----10----13-13-1313-| x2
D|----8-----10----13-13-1313-|
A|----6-----8-----11-11-1111-|
E|------------------|

interlude/bridge
1st guit
e|----------------|
B|----------------|
G|----------------|over and over
D|----------------|
A|-3-3/6----------|
E|-------3-3/6----|

2nd guit
e|---------------------------------------------|
B|---------------------------------------------|
G|----------------------------------pick slide-|
D|-3-1-0-1-3-1-0----5-3---3--------------------|
A|----------------------6---6-3-3/5------------|
E|---------------------------------------------|

2nd guit during verse
e|----------------------------|
B|----------------------------|
G|--8-8--8/12-10-10/12-8------|x2
D|----------------------------|
A|----------------------------|
E|----------------------------|

e|-------------------------|
B|-------------------------|
G|--12-12-12h13-12-10-8----|x2
D|-------------------------|
A|-------------------------|
E|-------------------------|

end
e|-----------------|
B|-----------------|
G|--5-5------5-----|
D|--5-5------5-----|
A|--3-3------3-----|
E|-------4p3-------|
-

| /  slide up
| \  slide down
| h  hammer-on
| p  pull-off
| ~  vibrato
| +  harmonic
| x  Mute note
============================





Comentarios del colaborador: Tienen ke escucharla pa ke tomen el ritmo a la cancion, ke es filete

Calificar esta versión:
Aviso: Este fichero es trabajo propio de su transcriptor y representa su interpretación personal de la canción. El material contenido en esta página es para exclusivo uso privado, por lo que se prohibe su reproducción o retransmisión, así como su uso para fines comerciales.