The Poison (intro), Bullet For My Valentine (tablatura)

Autor: Bullet666 | 38739 visualizaciones

e|-------------------|
b|-------------------|
g|-------------7-5-7-| x2
d|----8-7-8----------|
a|-------------------|
e|-5---------5-------|

e|----------------------------------------|
b|----------------------------------------|
g|-----3-2-3-----3-2-------3-2-3----3/5-3-|
d|-------------------3--------------------|
a|----------------------------------------|
e|-5/1---------1---------1--------1-------|

(1:07) Guitar 2 comes in with; (played x2)

e|-----------15-13-15------------15-13-15-|
b|-15-13-15------------15-13-15-----------|
g|----------------------------------------|
d|----------------------------------------|
a|----------------------------------------|
e|----------------------------------------|

e|-15-13-15--15-13-----15-13-15--15-15/17-15-|
b|-----------------15------------------------|
g|-------------------------------------------|
d|-------------------------------------------|
a|-------------------------------------------|
e|-------------------------------------------|

Solo (1:31) (Guitar 1/2 Play Main Riff x3)
====
e|------------------------------------------------|
b|-----10~---8-10-11--8-10-11---------------------|
g|---7-------------------------10--10-12-10-12~~\-| 2x
d|-5----------------------------------------------|
a|------------------------------------------------|
e|------------------------------------------------|

e|---------------/22~~~//-|
b|-/16----15//0-----------|
g|------------------------|
d|------------------------|
a|------------------------|
e|------------------------|

Outro
=====
e|----------------------------------------------------|
b|----------------------------------------------------|
g|-----------------------------------5--------5-------|
d|---7-7h8-7----7-7h8--7----7-7h8-7----7-8-7----7-----|
a|------------------------------------------------8-5-|
e|-5----------5-----------5---------------------------|

e|-------------------------------------------------------|
b|-------------------------------------------------------|
g|-----------------------------------5--------5----------|
d|---7-7h8-7----7-7h8--7----7-7h8-7----7-8-7----7--------|
a|------------------------------------------------8-5----|
e|-5----------5-----------5---------------------------0~-|
Calificar esta versión:
Aviso: Este fichero es trabajo propio de su transcriptor y representa su interpretación personal de la canción. El material contenido en esta página es para exclusivo uso privado, por lo que se prohibe su reproducción o retransmisión, así como su uso para fines comerciales.