Suffocating Under The Words Of Sorrow, Bullet For My Valentine (tablatura)

Autor: thrasher18 | 36825 visualizaciones

Intro: (play twice)

D -------------------------------------------------------------------------|
A -------------------------------------------------------------------------|
F -------------------------------------------------------------------------|
C ----7--7----10-----9----------------7----12-----10----9h10---------------|
G ----7--7--------------------10-------------------------------------------|
C ----7--7--------7-----7--7------7-----7-------7----7----------7----------|
                  .     .  .      .     .       .    .          .

D ----------------------------------------------|
A ----------------------------------------------|
F ----------------------------------------------|
C ---------7---7---7---7---7---7----------------|
G ---------7---7---7---7---7---7----------------|
C ---------7---7---7---7---7---7----------------|
           .   .   .   .   .   .

D ------------------------------------------------------------------|
A ------------------------------------------------------------------|
F ---------9h10p9------7h9p7------5h7p5------~4---------------------|
C ------------------------------------------------------------------|
G ------------------------------------------------------------------|
C ------------------------------------------------------------------|


D -------------------------------------------------------------------------|
A -------------------------------------------------------------------------|
F -------------------------------------------------------------------------|
C ----7--7----10-----9----------------7----12-----10----9h10---------------|
G ----7--7--------------------10-------------------------------------------|
C ----7--7--------7-----7--7------7-----7-------7----7----------7----------|
                  .     .  .      .     .       .    .          .

D ------------------------------------------|
A ------------------------------------------|
F ------------------------------------------|
C ---------7---7---7---7---7---7------------|
G ---------7---7---7---7---7---7------------|
C ---------7---7---7---7---7---7------------|
           .   .   .   .   .   .

D ------------------------------------------------------|
A ------------------------------------------------------|
F ---------9--10----7--9----5--7----4-------------------|
C ------------------------------------------------------|
G ------------------------------------------------------|
C ------------------------------------------------------|


heres the Verse:

D --------------------------------------------------------------------|
A --------------------------------------------------------------------|
F --------------------------------------------------------------------|
C ---3-----3-----3-----3------3------3-----3-----3\7------------------|
G ---3-----3-----3-----3------3------3-----3-----3\7------------------|
C ---3--3--3--3--3--3--3---3--3---3--3--3--3-----3\7------------------|


D -------------------------------------------------------------------------|
A -------------------------------------------------------------------------|
F -------------------------------------------------------------------------|
C ----7--7----10-----9----------------7----12-----10----9h10---------------|
G ----7--7--------------------10-------------------------------------------|
C ----7--7--------7-----7--7------7-----7-------7----7----------7----------|
                  .     .  .      .     .       .    .          .

D ------------------------------------------|
A ------------------------------------------|
F ------------------------------------------|
C ---------7---7---7---7---7---7------------|
G ---------7---7---7---7---7---7------------|
C ---------7---7---7---7---7---7------------|
           .   .   .   .   .   .

D -----------------------------------------------------------------|
A -----------------------------------------------------------------|
F ---------9h10p9------7h9p7------5h7p5------~4--------------------|
C -----------------------------------------------------------------|
G -----------------------------------------------------------------|
C -----------------------------------------------------------------|


D -------------------------------------------------------------------------|
A -------------------------------------------------------------------------|
F -------------------------------------------------------------------------|
C ----7--7----10-----9----------------7----12-----10----9h10---------------|
G ----7--7--------------------10-------------------------------------------|
C ----7--7--------7-----7--7------7-----7-------7----7----------7----------|
                  .     .  .      .     .       .    .          .

D ------------------------------------------|
A ------------------------------------------|
F ------------------------------------------|
C ---------7---7---7---7---7---7------------|
G ---------7---7---7---7---7---7------------|
C ---------7---7---7---7---7---7------------|
           .   .   .   .   .   .

D ------------------------------------------------------|
A ------------------------------------------------------|
F ---------9--10----7--9----5--7----4-------------------|
C ------------------------------------------------------|
G ------------------------------------------------------|
C ------------------------------------------------------|


D -------------------------------------------------------------------------|
A -------------------------------------------------------------------------|
F -------------------------------------------------------------------------|
C ----7--7----10-----9----------------7----12-----10----9h10---------------|
G ----7--7--------------------10-------------------------------------------|
C ----7--7--------7-----7--7------7-----7-------7----7----------7----------|
                  .     .  .      .     .       .    .          .

D ------------------------------------------|
A ------------------------------------------|
F ------------------------------------------|
C ---------7---7---7---7---7---7------------|
G ---------7---7---7---7---7---7------------|
C ---------7---7---7---7---7---7------------|
           .   .   .   .   .   .

D -----------------------------------------------------------------|
A -----------------------------------------------------------------|
F ---------9h10p9------7h9p7------5h7p5------~4--------------------|
C -----------------------------------------------------------------|
G -----------------------------------------------------------------|
C -----------------------------------------------------------------|


D -------------------------------------------------------------------------|
A -------------------------------------------------------------------------|
F -------------------------------------------------------------------------|
C ----7--7----10-----9----------------7----12-----10----9h10---------------|
G ----7--7--------------------10-------------------------------------------|
C ----7--7--------7-----7--7------7-----7-------7----7----------7----------|
                  .     .  .      .     .       .    .          .

D ------------------------------------------|
A ------------------------------------------|
F ------------------------------------------|
C ---------7---7---7---7---7---7------------|
G ---------7---7---7---7---7---7------------|
C ---------7---7---7---7---7---7------------|
           .   .   .   .   .   .

D ------------------------------------------------------|
A ------------------------------------------------------|
F ---------9--10----7--9----5--7----4-------------------|
C ------------------------------------------------------|
G ------------------------------------------------------|
C ------------------------------------------------------|


Not sure how accurate this is but here is the chorus:

D --------------------------------------------------------------------|
A --------------------------------------------------------------------|
F --------------------------------------------------------------------|
C ---3-----3-----3-----3------3------3-----3-----3\7------------------|
G ---3-----3-----3-----3------3------3-----3-----3\7------------------|
C ---3--3--3--3--3--3--3--3---3--3---3--3--3--3--3\7------------------|


D -------------------------------------|
A -------------------------------------|
F ------7p0--~9--------7p0--~9---------|
C ----------------7--------------------|
G ----------------7--------------------|
C ---7------------7--7-----------------|


D --------------------------------------------------------------------|
A --------------------------------------------------------------------|
F --------------------------------------------------------------------|
C ---3-----3-----3-----3------3------3-----3-----3\5------------------|
G ---3-----3-----3-----3------3------3-----3-----3\5------------------|
C ---3--3--3--3--3--3--3--3---3--3---3--3--3--3--3\5------------------|


D -----------------------------------------|
A -----------------------------------------|
F ------7p0--~9--------7p0--9--7--5--------|
C ----------------5------------------------|
G ----------------5------------------------|
C ---5------------5--5---------------------|


D --------------------------------------------------------------------|
A --------------------------------------------------------------------|
F --------------------------------------------------------------------|
C ---3-----3-----3-----3------3------3-----3-----3\7------------------|
G ---3-----3-----3-----3------3------3-----3-----3\7------------------|
C ---3--3--3--3--3--3--3--3---3--3---3--3--3--3--3\7------------------|


D -----------------------------------------------|
A --------------------------------*--------------|
F ------7p0--~9--------7p0--7b9b7--~5------------|
C ----------------7------------------------------|
G ----------------7------------------------------|
C ---7------------7--7---------------------------|


D --------------------------------------------------------------------|
A --------------------------------------------------------------------|
F --------------------------------------------------------------------|
C ---3-----3-----3-----3------3------3-----3-----3\5------------------|
G ---3-----3-----3-----3------3------3-----3-----3\5------------------|
C ---3--3--3--3--3--3--3--3---3--3---3--3--3--3--3\5------------------|


D -----------------------------------------|
A -----------------------------------------|
F ------7p0--~9--------7p0--9--7--5--------|
C ----------------5------------------------|
G ----------------5------------------------|
C ---5------------5--5---------------------|


Verse again:

D -------------------------------------------------------------------------|
A -------------------------------------------------------------------------|
F -------------------------------------------------------------------------|
C ----7--7----10-----9----------------7----12-----10----9h10---------------|
G ----7--7--------------------10-------------------------------------------|
C ----7--7--------7-----7--7------7-----7-------7----7----------7----------|
                  .     .  .      .     .       .    .          .

D ------------------------------------------|
A ------------------------------------------|
F ------------------------------------------|
C ---------7---7---7---7---7---7------------|
G ---------7---7---7---7---7---7------------|
C ---------7---7---7---7---7---7------------|
           .   .   .   .   .   .

D -----------------------------------------------------------------|
A -----------------------------------------------------------------|
F ---------9h10p9------7h9p7------5h7p5------~4--------------------|
C -----------------------------------------------------------------|
G -----------------------------------------------------------------|
C -----------------------------------------------------------------|


D -------------------------------------------------------------------------|
A -------------------------------------------------------------------------|
F -------------------------------------------------------------------------|
C ----7--7----10-----9----------------7----12-----10----9h10---------------|
G ----7--7--------------------10-------------------------------------------|
C ----7--7--------7-----7--7------7-----7-------7----7----------7----------|
                  .     .  .      .     .       .    .          .

D ------------------------------------------|
A ------------------------------------------|
F ------------------------------------------|
C ---------7---7---7---7---7---7------------|
G ---------7---7---7---7---7---7------------|
C ---------7---7---7---7---7---7------------|
           .   .   .   .   .   .

D ------------------------------------------------------|
A ------------------------------------------------------|
F ---------9--10----7--9----5--7----4-------------------|
C ------------------------------------------------------|
G ------------------------------------------------------|
C ------------------------------------------------------|


D -------------------------------------------------------------------------|
A -------------------------------------------------------------------------|
F -------------------------------------------------------------------------|
C ----7--7----10-----9----------------7----12-----10----9h10---------------|
G ----7--7--------------------10-------------------------------------------|
C ----7--7--------7-----7--7------7-----7-------7----7----------7----------|
                  .     .  .      .     .       .    .          .

D ------------------------------------------|
A ------------------------------------------|
F ------------------------------------------|
C ---------7---7---7---7---7---7------------|
G ---------7---7---7---7---7---7------------|
C ---------7---7---7---7---7---7------------|
           .   .   .   .   .   .

D -----------------------------------------------------------------|
A -----------------------------------------------------------------|
F ---------9h10p9------7h9p7------5h7p5------~4--------------------|
C -----------------------------------------------------------------|
G -----------------------------------------------------------------|
C -----------------------------------------------------------------|


D -------------------------------------------------------------------------|
A -------------------------------------------------------------------------|
F -------------------------------------------------------------------------|
C ----7--7----10-----9----------------7----12-----10----9h10---------------|
G ----7--7--------------------10-------------------------------------------|
C ----7--7--------7-----7--7------7-----7-------7----7----------7----------|
                  .     .  .      .     .       .    .          .

D ------------------------------------------|
A ------------------------------------------|
F ------------------------------------------|
C ---------7---7---7---7---7---7------------|
G ---------7---7---7---7---7---7------------|
C ---------7---7---7---7---7---7------------|
           .   .   .   .   .   .

D ------------------------------------------------------|
A ------------------------------------------------------|
F ---------9--10----7--9----5--7----4-------------------|
C ------------------------------------------------------|
G ------------------------------------------------------|
C ------------------------------------------------------|


the chorus:

D --------------------------------------------------------------------|
A --------------------------------------------------------------------|
F --------------------------------------------------------------------|
C ---3-----3-----3-----3------3------3-----3-----3\7------------------|
G ---3-----3-----3-----3------3------3-----3-----3\7------------------|
C ---3--3--3--3--3--3--3--3---3--3---3--3--3--3--3\7------------------|


D -------------------------------------|
A -------------------------------------|
F ------7p0--~9--------7p0--~9---------|
C ----------------7--------------------|
G ----------------7--------------------|
C ---7------------7--7-----------------|


D --------------------------------------------------------------------|
A --------------------------------------------------------------------|
F --------------------------------------------------------------------|
C ---3-----3-----3-----3------3------3-----3-----3\5------------------|
G ---3-----3-----3-----3------3------3-----3-----3\5------------------|
C ---3--3--3--3--3--3--3--3---3--3---3--3--3--3--3\5------------------|


D -----------------------------------------|
A -----------------------------------------|
F ------7p0--~9--------7p0--9--7--5--------|
C ----------------5------------------------|
G ----------------5------------------------|
C ---5------------5--5---------------------|


D --------------------------------------------------------------------|
A --------------------------------------------------------------------|
F --------------------------------------------------------------------|
C ---3-----3-----3-----3------3------3-----3-----3\7------------------|
G ---3-----3-----3-----3------3------3-----3-----3\7------------------|
C ---3--3--3--3--3--3--3--3---3--3---3--3--3--3--3\7------------------|


D -----------------------------------------------|
A --------------------------------*--------------|
F ------7p0--~9--------7p0--7b9b7--~5------------|
C ----------------7------------------------------|
G ----------------7------------------------------|
C ---7------------7--7---------------------------|


D --------------------------------------------------------------------|
A --------------------------------------------------------------------|
F --------------------------------------------------------------------|
C ---3-----3-----3-----3------3------3-----3-----3\5------------------|
G ---3-----3-----3-----3------3------3-----3-----3\5------------------|
C ---3--3--3--3--3--3--3--3---3--3---3--3--3--3--3\5------------------|


D -----------------------------------------|
A -----------------------------------------|
F ------7p0--~9--------7p0--9--7--5--------|
C ----------------5------------------------|
G ----------------5------------------------|
C ---5------------5--5---------------------|

====
Solo
====
                            ~guitar 2 starts here \|/~
D--------------------------------------------------------------------------|
A-10-10-12-13-12-10--10-10-12-13-12-13-12-13-10-12-13-12/15-13-13-15-1312~-|
F----------------10-9----------------------------9-10----------------------|
C--------------------------------------------------------------------------|
G--------------------------------------------------------------------------|
C--------------------------------------------------------------------------|

not sure of the fast bit that follows that.

D --------------------------------|
A --------------------------------|
F --------------------------------|
C -7--9--10--12--10--12--10--9--7-|
G --------------------------------|
C --------------------------------|


D --------------------------------|
A --------------------------------|
F --------------------------------|
C -----10-10/9----12-12/10---9/10-| x2
G -0-0----------------------------|
C --------------------------------|
   . .

D --------------------------------|
A --------------------------------|
F --------------------------------|
C -----10-10/9----12-12/10---9/10-| x2
G -8-8----------------------------|
C --------------------------------|
   . .

D --------------------------------|
A --------------------------------|
F --------------------------------|
C -----10-10/9----12-12/10---9/10-| x2
G -0-0----------------------------|
C --------------------------------|
   . .

D --------------------------------|
A --------------------------------|
F --------------------------------|
C -----10-10/9----12-12/10---9/10-| x2
G -8-8----------------------------|
C --------------------------------|
   . .

D ------------------------|
A ------------------------|
F ------------------------|
C -----10-10/9/---12~-10~-|
G -8-8--------------------|
C ------------------------|
   . .

D --------------------------------|
A --------------------------------|
F --------------------------------|
C -----10-10/9----12-12/10---9/10-| x2
G -0-0----------------------------|
C --------------------------------|
   . .

D --------------------------------|
A --------------------------------|
F --------------------------------|
C -----10-10/9----12-12/10---9/10-| x2
G -8-8----------------------------|
C --------------------------------|
   . .

then this is played over the top

D ----------------|
A ----------------|
F ----------------|
C -7~--9~-10~-12~-| x2
G ----------------|
C ----------------|


Verse again:

D -------------------------------------------------------------------------|
A -------------------------------------------------------------------------|
F -------------------------------------------------------------------------|
C ----7--7----10-----9----------------7----12-----10----9h10---------------|
G ----7--7--------------------10-------------------------------------------|
C ----7--7--------7-----7--7------7-----7-------7----7----------7----------|
                  .     .  .      .     .       .    .          .

D ------------------------------------------|
A ------------------------------------------|
F ------------------------------------------|
C ---------7---7---7---7---7---7------------|
G ---------7---7---7---7---7---7------------|
C ---------7---7---7---7---7---7------------|
           .   .   .   .   .   .

D -----------------------------------------------------------------|
A -----------------------------------------------------------------|
F ---------9h10p9------7h9p7------5h7p5------~4--------------------|
C -----------------------------------------------------------------|
G -----------------------------------------------------------------|
C -----------------------------------------------------------------|


D -------------------------------------------------------------------------|
A -------------------------------------------------------------------------|
F -------------------------------------------------------------------------|
C ----7--7----10-----9----------------7----12-----10----9h10---------------|
G ----7--7--------------------10-------------------------------------------|
C ----7--7--------7-----7--7------7-----7-------7----7----------7----------|
                  .     .  .      .     .       .    .          .

D ------------------------------------------|
A ------------------------------------------|
F ------------------------------------------|
C ---------7---7---7---7---7---7------------|
G ---------7---7---7---7---7---7------------|
C ---------7---7---7---7---7---7------------|
           .   .   .   .   .   .

D ------------------------------------------------------|
A ------------------------------------------------------|
F ---------9--10----7--9----5--7----4-------------------|
C ------------------------------------------------------|
G ------------------------------------------------------|
C ------------------------------------------------------|


D -------------------------------------------------------------------------|
A -------------------------------------------------------------------------|
F -------------------------------------------------------------------------|
C ----7--7----10-----9----------------7----12-----10----9h10---------------|
G ----7--7--------------------10-------------------------------------------|
C ----7--7--------7-----7--7------7-----7-------7----7----------7----------|
                  .     .  .      .     .       .    .          .

D ------------------------------------------|
A ------------------------------------------|
F ------------------------------------------|
C ---------7---7---7---7---7---7------------|
G ---------7---7---7---7---7---7------------|
C ---------7---7---7---7---7---7------------|
           .   .   .   .   .   .

D -----------------------------------------------------------------|
A -----------------------------------------------------------------|
F ---------9h10p9------7h9p7------5h7p5------~4--------------------|
C -----------------------------------------------------------------|
G -----------------------------------------------------------------|
C -----------------------------------------------------------------|


D -------------------------------------------------------------------------|
A -------------------------------------------------------------------------|
F -------------------------------------------------------------------------|
C ----7--7----10-----9----------------7----12-----10----9h10---------------|
G ----7--7--------------------10-------------------------------------------|
C ----7--7--------7-----7--7------7-----7-------7----7----------7----------|
                  .     .  .      .     .       .    .          .

D ------------------------------------------|
A ------------------------------------------|
F ------------------------------------------|
C ---------7---7---7---7---7---7------------|
G ---------7---7---7---7---7---7------------|
C ---------7---7---7---7---7---7------------|
           .   .   .   .   .   .

D ------------------------------------------------------|
A ------------------------------------------------------|
F ---------9--10----7--9----5--7----4-------------------|
C ------------------------------------------------------|
G ------------------------------------------------------|
C ------------------------------------------------------|

the chorus again:

D --------------------------------------------------------------------|
A --------------------------------------------------------------------|
F --------------------------------------------------------------------|
C ---3-----3-----3-----3------3------3-----3-----3\7------------------|
G ---3-----3-----3-----3------3------3-----3-----3\7------------------|
C ---3--3--3--3--3--3--3--3---3--3---3--3--3--3--3\7------------------|


D -------------------------------------|
A -------------------------------------|
F ------7p0--~9--------7p0--~9---------|
C ----------------7--------------------|
G ----------------7--------------------|
C ---7------------7--7-----------------|


D --------------------------------------------------------------------|
A --------------------------------------------------------------------|
F --------------------------------------------------------------------|
C ---3-----3-----3-----3------3------3-----3-----3\5------------------|
G ---3-----3-----3-----3------3------3-----3-----3\5------------------|
C ---3--3--3--3--3--3--3--3---3--3---3--3--3--3--3\5------------------|


D -----------------------------------------|
A -----------------------------------------|
F ------7p0--~9--------7p0--9--7--5--------|
C ----------------5------------------------|
G ----------------5------------------------|
C ---5------------5--5---------------------|


D --------------------------------------------------------------------|
A --------------------------------------------------------------------|
F --------------------------------------------------------------------|
C ---3-----3-----3-----3------3------3-----3-----3\7------------------|
G ---3-----3-----3-----3------3------3-----3-----3\7------------------|
C ---3--3--3--3--3--3--3--3---3--3---3--3--3--3--3\7------------------|


D -----------------------------------------------|
A --------------------------------*--------------|
F ------7p0--~9--------7p0--7b9b7--~5------------|
C ----------------7------------------------------|
G ----------------7------------------------------|
C ---7------------7--7---------------------------|


D --------------------------------------------------------------------|
A --------------------------------------------------------------------|
F --------------------------------------------------------------------|
C ---3-----3-----3-----3------3------3-----3-----3\5------------------|
G ---3-----3-----3-----3------3------3-----3-----3\5------------------|
C ---3--3--3--3--3--3--3--3---3--3---3--3--3--3--3\5------------------|


D ------------------------------------------|
A ------------------------------------------|
F ------7p0--~9--------7p0--~9--------------| x2
C ----------------5-------------------------|
G ----------------5-------------------------|
C ---5------------5--5----------------------|


D --------------------------------------------------------------------|
A --------------------------------------------------------------------|
F --------------------------------------------------------------------|
C ----7--7----10-----9----------------7----12-----10----9h10----------|
G ----7--7--------------------10--------------------------------------|
C ----7--7--------7-----7--7------7-----7-------7----7----------7-----|


D --------------------------------------------------------|
A --------------------------------------------------------|
F ---------9h10p9------7h9p7------5h7p5------4h5p4----2~--|
C --------------------------------------------------------|
G --------------------------------------------------------|
C --------------------------------------------------------|
Calificar esta versión:
Aviso: Este fichero es trabajo propio de su transcriptor y representa su interpretación personal de la canción. El material contenido en esta página es para exclusivo uso privado, por lo que se prohibe su reproducción o retransmisión, así como su uso para fines comerciales.