Scream Aim Fire, Bullet For My Valentine (tablatura)

Autor: guitar hero mex | 25750 visualizaciones

D|----------------------------------------------------------------|
A|----------------------------------------------------------------|
F|----------------------------------------------------------------|
C|-5-----4-5----------4-5-7-5-4---4-----5-4-----------7~~~5~~~----|
G|------------------------------7---------------------------------|
D|---0-0-----0-0-0-0-0--------------0-0-----0-0-0-0-0-------------|

D|----------------------------------------------------------------|
A|----------------------------------------------------------------|
F|-------------------------------------------------7--------------|
C|---5-----5-----5-----5-----5-----------5----5----7--------------|    X2
G|-3---3-3---3-3---3-3---3-3---3-3-------5----5----5--------------|
D|---------------------------------------3----3-------------------|

Gtr2 Dist. (Padge)

D|-----------------------------------------------------------------|
A|-----------------------------------------------------------------|
F|-----------------------------------------------------------------|
C|-9-----7-9-----------7-9-10-9-7----7-----9-7-----------10~~~9~~~-|
G|--------------------------------10-------------------------------|
D|---7-7-----7-7-7-7-7-----------------7-7-----7-7-7-7-7-----------|

D|----------------------------------------------------------------|
A|----------------------------------------------------------------|
F|-999-111111-121212-141414-999-111111-121212-7-------------------|
C|----------------------------------------------------------------|   X2
G|----------------------------------------------------------------|
D|----------------------------------------------------------------|

Gtr3 Dist.

D|----------------------------------------------------------------|
A|----------------------------------------------------------------|
F|----------------------------------------------------------------|
C|-222-444-555-777-222-444-555-000--------------------------------|   X2
G|----------------------------------------------------------------|
D|----------------------------------------------------------------|




Pre-verse :
D|---------------------------------------------------------------|
A|---------------------------------------------------------------|
F|---------------------------------------------------------------|
C|-2-------------------------------------------------------------|
G|-2------\\\\\\\\\\\\\\\\\\\\\\\\\\\\\\\\-----------------------|
D|-0------\\\\\\\\\\\\\\\\\\\\\\\\\\\\\\\\-----------------------|
			Pick scrape

Verse :
D|---------------------------------------------------------------|
A|---------------------------------------------------------------|
F|---------------------------------------------------------------|
C|-2--22222---2--22222---2--22222---2—22222----7~~~5~~~----------|
G|-2--22222---2--22222---2--22222---2—22222----------------------|
D|-0--00000---0--00000---0--00000---0—00000----------------------|

D|---------------------------------------------------------------|
A|---------------------------------------------------------------|
F|------------------------5---4----------------------------------|
C|-7--77777---7--77777----5---4----------------------------------|  X2
G|-7--77777---7--77777----3---2----------------------------------|
D|-5--55555---5--55555-------------------------------------------|

Pre chorus:

D|---------------------------------------------------------------|
A|---------------------------------------------------------------|
F|----------------------------------------7----------------------|
C|-2----------------------2-2----------5--7----------------------| X4
G|-2—5p7-5p7-----5p7-5p7--2-2-5p7p5p0--5--5----------------------|
D|-0---------0-0----------0-0----------3-------------------------|

Chorus:


Gtr1 Dist. (Matt Tuck)

D|---------------------------------------------------------------|
A|---------------------------------------------------------------|
F|---------------------------------------------------------------|
C|-5-----4-5----------4-5-7-5-4---4-----5-4-----------7~~~5~~~---|
G|------------------------------7--------------------------------|
D|---0-0-----0-0-0-0-0--------------0-0-----0-0-0-0-0------------|

D|---------------------------------------------------------------|
A|---------------------------------------------------------------|
F|-------------------------------------------------7-------------|
C|---5-----5-----5-----5-----5-----------5----5----5-------------| X2
G|-3---3-3---3-3---3-3---3-3---3-3-------5----5----5-------------|
D|---------------------------------------3----3------------------|


Gtr2 Dist. (Padge)

D|-----------------------------------------------------------------|
A|-----------------------------------------------------------------|
F|-----------------------------------------------------------------|
C|-9-----7-9-----------7-9-10-9-7----7-----9-7-----------10~~~9~~~-|
G|--------------------------------10-------------------------------|
D|---7-7-----7-7-7-7-7-----------------7-7-----7-7-7-7-7-----------|

D|----------------------------------------------------------------|
A|----------------------------------------------------------------|
F|-------------------------------------------------7--------------|
C|---9-----9-----9-----9-----9-----------5----5----7--------------| X2
G|---------------------------------------5----5----5--------------|
D|-7---7-7---7-7---7-7---7-7---7-7-------3----3-------------------|

Verse
Pre chorus
Chorus

Bridge:

D|------------------------------------------------------------------------|
A|------------------------------------------------------------------------|
F|---------------------------------------------------------------------5--|
C|---2-----------------------22222222222222222-22222222222222222—-5-5—-5--|
G|---2--\\\\\\\\\\\\\\\\\\---22222222222222222-22222222222222222—-5-5--3--|
D|---0---\\\\\\\\\\\\\\\\\\--00000000000000000-00000000000000000—-3-3-----|
	    Pick scrape

D|-------------------------------------------------------------------|
A|-------------------------------------------------------------------|
F|------------------------------------------------5--4---------------|
C|-22222222222222222------22222222222222222--5-5--5--4---------------|
G|-22222222222222222—-3*--22222222222222222--5-5--3--2---------------|
D|-00000000000000000------00000000000000000—-3-3---------------------|


Solo (with wah/):

D|----------15-12-14-12-15-12-17--12-15-12-14-12-15-12-17-12-17b-15--------|
A|-------------------------------------------------------------------------|
F|-14b-12b-----------------------------------------------------------------|
C|-------------------------------------------------------------------------|
G|-------------------------------------------------------------------------|
D|-------------------------------------------------------------------------|

D|----------15-19-15----------15-19-15-----------14-17-14----------14-17-14-|
A|-17----17----------17----17----------17-----16----------16----16----------|
F|----16----------------16-----------------14----------------14-------------|
C|--------------------------------------------------------------------------|
G|--------------------------------------------------------------------------|
D|--------------------------------------------------------------------------|

D|----19-17----17----19-17-----------19-17-19----19-17-19------------------|
A|-17-------20----17-------20-19--17----------20----------17-15-17-19-20b--|
F|-------------------------------------------------------------------------|
C|-------------------------------------------------------------------------|
G|-------------------------------------------------------------------------|
D|-------------------------------------------------------------------------|

D|------------------------------------------------------------12-14-15-17--|b
A|---TAPPING???--------------------------------------12-14-15--------------|
F|------------------------------------------12-14-16-----------------------|
C|---------------------------------12-14-16--------------------------------|
G|------------------------12-14-15-----------------------------------------|
D|---------------12-14-15--------------------------------------------------|

Outro :

D|--------------------------------------------------------------------------|
A|--------------------------------------------------------------------------|
F|---------------------------------------------------------------------5----|
C|---2-----------------------22222222222222222-22222222222222222—-5-5—-5----|
G|---2--\\\\\\\\\\\\\\\\\\---22222222222222222-22222222222222222—-5-5--3----|
D|---0---\\\\\\\\\\\\\\\\\\--00000000000000000-00000000000000000—-3-3-------|
	    Pick scrape

D|---------------------------------------------------------|
A|---------------------------------------------------------|
F|------------------------------------------------5--4-----|
C|-22222222222222222------22222222222222222--5-5--5--4-----|
G|-22222222222222222—-3*--22222222222222222--5-5--3--2-----|
D|-00000000000000000------00000000000000000—-3-3-----------|


Any corrections at marco66666@gmail.com
____________________________________________________________________________

--EYE OF THE STORM--

Tabbed by:Br3tt
Email:irishfool@myway.com

Tuning: Standard D 


ok soo here how it is.. the solo is on here... the whole thing.. and yes you do
sweep the first part of it


Intro:

D|----------------------------------------------------------------|
A|----------------------------------------------------------------|
F|----------------------------------------------------------------|
C|------------------3-3-3-3-----------------3-3-3-3---------------|
G|---2-2-----2-2----1-1-1-1--2------2-2-----1-1-1-1---------------|
D|---0-0-----0-0-------------0------0-0---------------------------|


Verse:
                           1.              2.
D|------------------------|---------------|------------------------|
A|------------------------|---------------|------------------------|
F|------------------------|---------------|------------------------|
C|------------------------|---------------|-------3-3-3-3----------|
G|------7-----5----3---2--|---2h3p2p0h2---|-------1-1-1-1----------|
D|--0-0---0-0----0---0----|xx-------------|--x-x-------------------|


Pre-Chorus:

D|-------------------------------------------------------------------------|
A|-------------------------------------------------------------------------|
F|-------------------------------------------------------------------------|
C|-------------------------------------------------------------------------|
G|--2222222-2----2-2---222222-2---2-2--222222-2--2-2---222222-2---22222--2-|
D|--0000000-0----0-0---000000-0---0-0--000000-0--0-0---000000-0---00000--0-|




D|----------------------------------------------------------------|
A|----------------------------------------------------------------|
F|----------------------------------------------------------------|
C|-------------------------------------------------5--4--5--5/7b--|
G|-222222--2---2-2--222222-2---2-2--222222---2-2------------------|
D|-000000--0---0-0--000000-0---0-0--000000---0-0------------------|




Chorus:
                              !!!!!!Tremelo!!!!!!
D|-------------------------------------------------------------------------|
A|-------------------------------------------------------------------------|
F|-----------------------------T--T--T----T--T--T--------------------------|
C|-9--9999999--9--999--9-9----14-12-11---14-12-11----9--999999---9---999--9|
G|-7--7777777--7--777--7-7---------------------------7--777777---7---777--7|
D|-------------------------------------------------------------------------|




  

  1.             2.
D|----------|-----------------------|
A|----------|-----------------------|
F|--5-------|-----9--7--------------|
C|--5---5---|-----------10--9---7---|
G|--3---5---|-----------------------|
D|------3---|-----------------------|

verse:







reg verse 2x then..
                                    1.             2.
D|---------------------------------|---------------|----------------|
A|---------------------------------|---------------|----------------|
F|---------------------------------|---------------|----------------|
C|---------------------------------|---------------|----------------|
G|--------------10------9----7----5|---5h7p5p0h5---|-------8888-----|
D|-8888------0-0-----0-0---0----0--|-x-------------|-------6666-----|





Chorus:
                              !!!!!!Tremelo!!!!!!
D|-------------------------------------------------------------------------|
A|-------------------------------------------------------------------------|
F|-----------------------------T--T--T----T--T--T--------------------------|
C|-9--9999999--9--999--9-9----14-12-11---14-12-11----9--999999---9---999--9|
G|-7--7777777--7--777--7-7---------------------------7--777777---7---777--7|
D|-------------------------------------------------------------------------|




Bridge:


D|-------------------------------------------------------------------------|
A|-------------------------------------------------------------------------|
F|-------------------------------------------------------------------------|
C|-------------------------------------------------------------------------|
G|--7--------7--------7-------7-----10p7p0h7b--------------5---7---9---10-7|
D|----0-0-----0-0------0-0-----0-0-------------0-0-0-0-0-0---0---0---0-----|




 1.
D|--------------------------------------------------------------|
A|--------------------------------------------------------------|
F|--------------------------------------------------------------|
C|--------------------------------------------------------------|
G|--------------------10p7p0h5b--7p5p0h3b--5p3p0h3*-------------|
D|--0-0-0-0-0-0-0-0---------------------------------------------|



  2.
D|----------------------------------------------------------------------|
A|----------------------------------------------------------------------|
F|----------------------------------------------------------------------|
C|----------------------------------------------------------------------|
G|--------------------10p70h5b--7p5p0h3b--5p3p0h2b----------------------|
D|--0-0-0-0-0-0-0-0-----------------------------------------------------|


  3.
D|----------------------------------------------------------------------|
A|----------------------------------------------------------------------|
F|----------------------------------------------------------------------|
C|----------------------------------------------------------------------|
G|--------------------10p7p0h5b--7p5p0h3---5p3p0h2/10b------------------|
D|--0-0-0-0-0-0-0-0-----------------------------------------------------|


  






4.
D|----------------------------------------------------------------------|
A|----------------------------------------------------------------------|
F|----------------------------------------------------------------------|
C|----------------------------------------------------------------------|
G|-------------------10p7p0h7b--12p10p0h10b--14p12p0h12b----------------|
D|--0-0-0-0-0-0-0-0-----------------------------------------------------|
       . . . . . . . .


D||---19-15---------15--19-15---------15----19-15---------15--17-14----------14------|
A||---------17----17----------17----17------------17----17----------16-----16--------|
F||------------16----------------16------------------16-----------------14-----------|
C||----------------------------------------------------------------------------------|
G||----------------------------------------------------------------------------------|
D||----------------------------------------------------------------------------------|


D||---19-15---------15--19-15----------15----19-15---------15--17-14----------14-----|
A||---------17----17----------17----17-------------17----17----------16----16--------|
F||------------16----------------16-------------------16----------------14-----------|
C||----------------------------------------------------------------------------------|
G||----------------------------------------------------------------------------------|
D||----------------------------------------------------------------------------------|


D||---15-12---------12--15-12---------12-----15-12----------12--15-12---------12------|
A||---------13----13----------13----13-------------13----13-----------13----13--------|
F||------------12----------------12-------------------12-----------------12-----------|
C||-----------------------------------------------------------------------------------|
G||-----------------------------------------------------------------------------------|
D||-----------------------------------------------------------------------------------|


D||---15-12---------12--15-12---------12-----14-11---------11--14-11---------11--------|
A||---------13----13----------13----13-------------12----12----------12----12----------|
F||------------12----------------12-------------------11----------------11-------------|
C||------------------------------------------------------------------------------------|
G||------------------------------------------------------------------------------------|
D||------------------------------------------------------------------------------------|

    Gtr. 1 
D||--15------------------15-------------------15------------------14-------------------|
A||-----17----------17------17----------17-------17----------17------16----------16----|
F||--------16----16------------16----16-------------16----16------------14----14-------|
C||-----------17------------------17-------------------17------------------16----------|
G||------------------------------------------------------------------------------------|
D||------------------------------------------------------------------------------------|
   
   
   |Gtr. 2 
D||--19-15----------15---19-15----------15----19-15----------15---17-14----------14-----|
A||--------17----17------------17----17-------------17----17------------16----16--------|
F||-----------16------------------16-------------------16------------------14-----------|
C||-------------------------------------------------------------------------------------|
G||-------------------------------------------------------------------------------------|
D||-------------------------------------------------------------------------------------|


D||--15------------------15-------------------15------------------14-------------------|
A||-----17----------17------17----------17-------17----------17------16----------16----|
F||--------16----16------------16----16-------------16----16------------14----14-------|
C||-----------17------------------17-------------------17------------------16----------|
G||------------------------------------------------------------------------------------|
D||------------------------------------------------------------------------------------|
   |
   |
   |
   |
D||--19-15----------15---19-15----------15----19-15----------15---17-14----------14-----|
A||--------17----17------------17----17-------------17----17------------16----16--------|
F||-----------16------------------16-------------------16------------------14-----------|
C||-------------------------------------------------------------------------------------|
G||-------------------------------------------------------------------------------------|
D||-------------------------------------------------------------------------------------|




Tremelo pick all of these it sounds cooler
D|----------------------------------------------------------------------|
A|--12-13-15-13-15-17-15-17-19-20-19------------------------------------|
F|------------------------------------19-21b----------------------------|
C|----------------------------------------------------------------------|
G|----------------------------------------------------------------------|
D|----------------------------------------------------------------------|


D|----------15-----------------------15----------------------15---------|
A|-12h15p12----15-14-------12h15p12-----15-14-------12h15p12-----15-14--|
F|-------------------14b-----------------------12b----------------------|
C|----------------------------------------------------------------------|
G|----------------------------------------------------------------------|
D|----------------------------------------------------------------------|


  1.
D|----------------------------------------------------------------------|
A|----------------------------------------------------------------------|
F|-12-14-16-------------------------------------------------------------|
C|--------------9-7-5-7/9b----------------------------------------------|
G|----------------------------------------------------------------------|
D|----------------------------------------------------------------------|

  2.
D|----------------------------------------------------------------------|
A|----------------------------------------------------------------------|
F|-12-14-16-17-16b------------------------------------------------------|
C|----------------------------------------------------------------------|
G|----------------------------------------------------------------------|
D|----------------------------------------------------------------------|


Verse
D|------------------------|---------------|------------------------|
A|------------------------|---------------|------------------------|
F|------------------------|---------------|------------------------|
C|------------------------|---------------|-------3-3-3-3----------|
G|------7-----5----3---2--|---2h3p2p0h2---|-------1-1-1-1----------|
D|--0-0---0-0----0---0----|xx-------------|--x-x-------------------|



pre-chorus
D|-------------------------------------------------------------------------|
A|-------------------------------------------------------------------------|
F|-------------------------------------------------------------------------|
C|-------------------------------------------------------------------------|
G|--2222222-2----2-2---222222-2---2-2--222222-2--2-2---222222-2---22222--2-|
D|--0000000-0----0-0---000000-0---0-0--000000-0--0-0---000000-0---00000--0-|




D|----------------------------------------------------------------|
A|----------------------------------------------------------------|
F|----------------------------------------------------------------|
C|-------------------------------------------------5--4--5--5/7b--|
G|-222222--2---2-2--222222-2---2-2--222222---2-2------------------|
D|-000000--0---0-0--000000-0---0-0--000000---0-0------------------|



Chorus

D|-------------------------------------------------------------------------|
A|-------------------------------------------------------------------------|
F|-----------------------------T--T--T----T--T--T--------------------------|
C|-9--9999999--9--999--9-9----14-12-11---14-12-11----9--999999---9---999--9|
G|-7--7777777--7--777--7-7---------------------------7--777777---7---777--7|
D|-------------------------------------------------------------------------|




   
D|----------------------------------|
A|----------------------------------|
F|----------------------------------|
C|--10-9-7--------------------------|
G|----------10-9b-------------------|
D|----------------------------------|



D|--------------------------|
A|--------------------------|
F|--------------------------|
C|-------3-3-3-3------------|
G|--2----1-1-1-1---2--------|
D|--0--------------0--------|

And that’s it
____________________________________________________________________________

--HEARTS BURST INTO FIRE--


Tabbed by: Aniket Patni
Email: ani_k8@hotmail.com

Tuning: Drop C Tuning (CGCFAD)

Entire song is tabbed by ear, and done myself.
I Havent done some parts, might do them later if i get time
if anyone has any corrections or wants to add to any part of the song,
please email me and i will make the changes/additions and duly credit you.

Im Very bad at tabbing so if you could not understand, im sorry, and please
let me know.

If Anyone converts this to GP, Awesome! but please credit me as well.

If you want to hear it, I've recorded myself playing the song with these tabs
at this address :
http://www.youtube.com/watch?v=AXVJv8FrF9A

Anyway, here we go!

Intro :

Guitar-1 Clean (Padge)

D|---------3-----3-----3-----3-------------0-----------------------|
A|-----6-----6-----6-----6-----6-------------6---------------------|
F|-------5-----5-----5-----5-----5-------5-----5-------------------|
C|-------------------------------------6---------0-----------------|
G|---3-------------------------------0-----------------------------|
C|-3-------------------------------0-------------------------------|


D|---------3-----3-----3-----3-------------0--------0--------------|
A|-----6-----6-----6-----6-----6-------------6--------6------------|
F|-------5-----5-----5-----5-----5-------5-----5--------5----------|
C|-------------------------------------6---------0--------0--------|   X 2
G|---3-------------------------------0-----------------------------|
C|-3-------------------------------0-------------------------------|

Gtr2 Dist. (Tuck)

D|-----------------------------------------------------------------|
A|-------13--------------------------------------------------------|
F|-~9-10-----10-9-10-~7--5-5(sustain)--7-7-9-9-10-10-12-12^--------|
C|-----------------------------------------------------------------|
G|-----------------------------------------------------------------|
C|-----------------------------------------------------------------|

D|----------------------------------------------------------------|
A|----------------------------------------------------------------|
F|-10h12h10h12h10h14-(X 5)-10h12h10h12--9h10h9h10h9h12-(X 5)-12^--|
C|====-----------(Hammer Ons And Pull Offs)-----------------------|
G|----------------------------------------------------------------|
C|----------------------------------------------------------------|

D|----------------------------------------------------------------|
A|-------------------10-8----8-10-11-10---6(sustain)--------------|
F|-7-9-9-10-10-5-5--------10--------------------------------------|
C|----------------------------------------------------------------|
G|----------------------------------------------------------------|
C|----------------------------------------------------------------|


Pre-verse :
Guitar 1 (Tuck)
D|------------------------------------------------------------------|
A|-6-6---------6---5-5--------5---6-6---------6---5-5---6-6---------|
F|-5-5---------5---5-5--------5---5-5---------5---5-5---5-5---------|
C|------------------------------------------------------------------|
G|------------------------------------------------------------------|
C|-----3-3-3-3---3----3-3-3-3---3-----3-3-3-3---3-----3-----3-------|


D|------------------------------------------------------------------|
A|-6-6---------6---5-5--------5---6-6--------6----5-6---5-6---------|
F|-5-5---------5---5-5--------5---5-5--------5----5-5---5-5---------|
C|------------------------------------------------------------------|
G|------------------------------------------------------------------|
C|-----0-0-0-0---0----0-0-0-0---0-----0-0-0-0---0-----0-----0-------|


Verse : (Both Guitars)
D|------------------------------------------------------------------|
A|-6-6---------6---5-5--------5---6-6---------6---5-5---6-6---------|
F|-5-5---------5---5-5--------5---5-5---------5---5-5---5-5---------|
C|------------------------------------------------------------------|
G|------------------------------------------------------------------|
C|-----3-3-3-3---3----3-3-3-3---3-----3-3-3-3---3-----3-----3-------|

                                                                       X 2

D|------------------------------------------------------------------|
A|-6-6---------6---5-5--------5---6-6--------6----5-6---5-6---------|
F|-5-5---------5---5-5--------5---5-5--------5----5-5---5-5---------|
C|------------------------------------------------------------------|
G|------------------------------------------------------------------|
C|-----0-0-0-0---0----0-0-0-0---0-----0-0-0-0---0-----0-----0-------|


Bridge: (Both GUitars)

D|------------------------------------------------------------------|
A|------------------------------------------------------------------|
F|-3-3---------------------3-5-7-------------------7-5--------------|
C|-3-3---------------------3-5-7-------------------7-5--------------|
G|-1-1-1-1-1-1-1-1-1-1-1-1-1-3-5-5-5-5-5-5-5-5-5-5-5-3--------------|
C|------------------------------------------------------------------|

D|------------------------------------------------------------------|
A|------------------------------------------------------------------|
F|-3-3---------------------3-5-5-------------------3-5-5------------|
C|-3-3---------------------3-5-5-------------------3-5-3------------|
G|-1-1-1-1-1-1-1-1-1-1-1-1-1-3-3-5-5-5-5-5-5-5-5-5-1-3-3------------|
C|------------------------------------------------------------------|

Pre chorus: (Im doing only Padgets Lead here)

D|---------------------------------------------------------------|
A|---------------------------------------------------------------|
F|-10-12-10-17-15-14-15-12(sustain)-10---------------------------|
C|---------------------------------------------------------------|
G|-—-------------------------------------------------------------|
C|---------------------------------------------------------------|

D|---------------------------------------------------------------|
A|---------------------------------------------------------------|
F|-10-12-10-17-15-14-15-12(sustain)-14-15-14----14---------------|
C|-------------------------------------------17----17-15---------|
G|-—-------------------------------------------------------------|
C|---------------------------------------------------------------|

Chorus:


Both Guitars

D|---------------------------------------------------------------|
A|---------------------------------------------------------------|
F|--------------------------5---------------5-5-5-3-5------------|
C|-7---7---8---5--3---3-5-2-5---------------5-5-5-3-5------------| x 2
G|-5-5---5---5----1-1-------3-3-3-3-3-3-3-3-3-3-3-1-3------------|
C|---------------------------------------------------------------|


Repeat Verse, Bridge, Pre Chorus amd Chorus

Interlude (Doing Matts part here only..havent checked the acoustic bit yet)

D|------------------------------------------------------------------|
A|------------------------------------------------------------------|
F|------------------------------------------------------------------|
C|--------------3-5-------------3-5-3-------------3-5-----------3-5-|
G|-0------------3-5--0----------3-5-3-(sustain)---3-5-0---------3-5-|
C|-0------------1-3--0----------1-3-1-------------1-3-0---------1-3-|
c|-0-----------------0--------------------------------0-------------|

Re-verse (With some modification)

D|----------------------------------------------------------------------|
A|-6-6-----5---5----5-----5---6-----6-----6---5---5---5---5-------------|
F|-5-5-----6---5----5-----5---5-----5-----5---5---6---5---6-------------|
C|----------------------------------------------------------------------|
G|----------------------------------------------------------------------|
C|-----3-3---3--3-3---3-3---3---3-3---3-3---3---3---3---3---3-----------|

D|----------------------------------------------------------------------|
A|-6-6-----5---5----5-----5---6-----6-----6---5-------------------------|
F|-5-5-----6---5----5-----5---5-----5-----5---5-------------------------|
C|----------------------------------------------------------------------|
G|----------------------------------------------------------------------|
C|-----3-3---3--3-3---3-3---3---3-3---3-3---3---------------------------|

Repeat Bridge, Pre-Chorus, Chorus

Interlude-Outro : (Padgets Part, Without the Harmoized guitar)

D|--slide-in -10-9-----------------------slide-in-10-9--------------------|
A|------------------10---------------------------------10-----------------|
F|---------------------11-9-6-7--(X 3)--------------------11-9-12-11------|
C|------------------------------------------------------------------------|
G|------------------------------------------------------------------------|
C|------------------------------------------------------------------------|

Repeat Verse x2

Outro :

Matts Guitar :

D|-------------------------------------------------------------------------|
A|-------------------------------------------------------------------------|
F|3-5----------------------------------------------------------------------|
C|3-5-0--------------------------------------------------------------------|
G|1-3-0--------------------------------------------------------------------|
C|----0--------------------------------------------------------------------|

Padgets Guitar :

D|--slide-in -10-9--------------------------------------------------------|
A|------------------10----------------------------------------------------|
F|---------------------11-9-6-7--(X 8-9 times with eventually slowin down)|
C|------------------------------------------------------------------------|
G|------------------------------------------------------------------------|
C|------------------------------------------------------------------------|

Thats Pretty much it.
Enjoy!

EDIT: made a mistake at the intro solo,and also at the guitar names, have fixed it, 
to Syn_66 for pointing them out.
____________________________________________________________________________

--WAKING THE DEMON--

Enjoy.

NOTE!: the tuning on the guitar scale is not right!!
Actual tuning: D,A,F,C,G,C

s-slide
p-pull off
h-hammer on
*-pinch harmonic

Intro (main riff)
played 4 or 5x (cant remember)
D||--------------------------------------------------------------------|
A||--------------------------------------------------------------------|
F||--------------------------------------------------------------------|
C||--------------------------------------------------------------------|
G||---------5p4-----7p4------------------------5p4-----7p4------4--7---|
C||-4-4-4-4-----4-4-----4-4--5p4-7p4---4-4-4-4-----4-4-----4-4--4--7---|

D||-----------------------------------------------------------------------|
A||-----------------------------------------------------------------------|
F||-----------------------------------------------------------------------|
C||-----------------------------------------------------7p4-5p4-----------|
G||---------5p4-----7p4------------------------5p4-------------7p4-5p4----|
C||-4-4-4-4-----4-4-----4-4--5p4-7p4---4-4-4-4-----4-4--------------------|

D||----------------------------------------------------------------------|
A||----------------------------------------------------------------------|
F||----------------------------------------------------------------------|
C||---0-----------7p4 5p4----------9p6-7p6-------------------------------|
G||---0------------------7p4-5p4----------9p6-7p6------------------------|
C||---0------------------------------------------------------------------|

Main riff once again (played 2x)
D||--------------------------------------------------------------------|
A||--------------------------------------------------------------------|
F||--------------------------------------------------------------------|
C||--------------------------------------------------------------------|
G||---------5p4-----7p4------------------------5p4-----7p4------4--7---|
C||-4-4-4-4-----4-4-----4-4--5p4-7p4---4-4-4-4-----4-4-----4-4--4--7---|

D||-----------------------------------------------------------------------|
A||-----------------------------------------------------------------------|
F||-----------------------------------------------------------------------|
C||-----------------------------------------------------7p4-5p4-----------|
G||---------5p4-----7p4------------------------5p4-------------7p4-5p4----|
C||-4-4-4-4-----4-4-----4-4--5p4-7p4---4-4-4-4-----4-4--------------------|

Chorus. played 2x

Gtr 1.
D||-----------------------------------------------------------------------|
A||-----------------------------------------------------------------------|
F||-----------------------------------------------------------------------|
C||----------------------------------------s7-6---------------------------|
G||----------------------4-4-4-4------------------------------------------|
C||--7-5-4-4---4-5-4-4---4-4-4-4---7-5-4-4--------------------------------|

Gtr. 2
D||-----------------------------------------------------------------------|
A||-----------------------------------------------------------------------|
F||----------------------------------------s6-4---------------------------|
C||-----------------------------------------------------------------------|
G||----------------------4-4-4-4------------------------------------------|
C||--7-5-4-4---4-5-4-4---4-4-4-4---7-5-4-4--------------------------------|

Outer riff. (probably not the correct number of picks but you get the point)

D||-----------------------------------------------------------------------|
A||-----------------------------------------------------------------------|
F||---------------------------------------------6-6-6-6-6-4-4-4-4-4-------|
C||-4-4-4-4-4-4-4-4--6-6-6-6-6-------7-7-7-7-7-7--------------------7-7-7-|
G||---------------------------4-4-4-4-------------------------------------|
C||-----------------------------------------------------------------------|

D||-----------------------------------------------------------------------|
A||-----------------------------------------------------------------------|
F||-----------------------------------------------------------------------|
C||-4-4-4-4-4-4-4-4--6-6-6-6-6-------7-7-7-7-7-7--------------------------|
G||---------------------------4-4-4-4-------------------------------------|
C||------------------------------------------------7*---------------------|

Main riff once again (played 2x)
D||-----------------------------------------------------------------------|
A||-----------------------------------------------------------------------|
F||-----------------------------------------------------------------------|
C||-----------------------------------------------------------------------|
G||---------5p4-----7p4------------------------5p4-----7p4------4--7------|
C||4-4-4-4-----4-4-----4-4--5p4-7p4---4-4-4-4-----4-4-----4-4--4--7--------|

D||-----------------------------------------------------------------------|
A||-----------------------------------------------------------------------|
F||-----------------------------------------------------------------------|
C||-----------------------------------------------------7p4-5p4-----------|
G||---------5p4-----7p4------------------------5p4-------------7p4-5p4----|
C||-4-4-4-4-----4-4-----4-4--5p4-7p4---4-4-4-4-----4-4--------------------|

Gtr 1.
D||-----------------------------------------------------------------------|
A||-----------------------------------------------------------------------|
F||-----------------------------------------------------------------------|
C||----------------------------------------s7-6---------------------------|
G||----------------------4-4-4-4------------------------------------------|
C||--7-5-4-4---4-5-4-4---4-4-4-4---7-5-4-4--------------------------------|

Gtr. 2
D||-----------------------------------------------------------------------|
A||-----------------------------------------------------------------------|
F||----------------------------------------s6-4---------------------------|
C||-----------------------------------------------------------------------|
G||----------------------4-4-4-4------------------------------------------|
C||--7-5-4-4---4-5-4-4---4-4-4-4---7-5-4-4--------------------------------|

Outer riff.

D||-----------------------------------------------------------------------|
A||-----------------------------------------------------------------------|
F||---------------------------------------------6-6-6-6-6-4-4-4-4-4-------|
C||-4-4-4-4-4-4-4-4--6-6-6-6-6-------7-7-7-7-7-7--------------------7-7-7-|
G||---------------------------4-4-4-4-------------------------------------|
C||-----------------------------------------------------------------------|

D||-----------------------------------------------------------------------|
A||-----------------------------------------------------------------------|
F||-----------------------------------------------------------------------|
C||-4-4-4-4-4-4-4-4--6-6-6-6-6-------7-7-7-7-7-7-7-7-7-7--////////////----|
G||---------------------------4-4-4-4---------------------////////////----|
C||-------------------------------------------------------////////////----|
                                                          (pick scrapping)
Breakdown part. 4x
Gtr. 1
D||-----------------------------------------------------------------------|
A||---s10-9---9------s10-9---9-------S10-9---10---12---10---9---10--------|
F||---------9---9~~--------9---11~~--------9----9----9----9---9----9~~----|
C||-----------------------------------------------------------------------|
G||-----------------------------------------------------------------------|
C||-----------------------------------------------------------------------|

D||-----------------------------------------------------------------------|
A||---s10-9---9------s10-9---9-------S10-9---10---12---10---9---10--------|
F||---------9---9~~--------9---11~~--------9----9----9----9---9----9*~~---|
C||-----------------------------------------------------------------------|
G||-----------------------------------------------------------------------|
C||-----------------------------------------------------------------------|

Gtr 2.
D||-----------------------------------------------------------------------|
A||-----------------------------------------------------------------------|
F||-----------------------------------------------------------------------|
C||--0---0-0---0--2---2-2---2--4---4-4---4-4---4-4--4---------------------|
G||--0---0-0---0--2---2-2---2--4---4-4---4-4---4-4--4---------------------|
C||--0---0-0---0--2---2-2---2--4---4-4---4-4---4-4--4---------------------|

                                              countless times here.
D||----------------------------------------|-----------------------------|
A||----------------------------------------|-----------------------------|
F||----------------------------------------|-----------------------------|
C||----------------------------------------|-----------------------------|
G||--4---4-4-4-4-4---4-4-4-4-4--4-4-4-4-4--|--4-4-4-4-4-4-4-4-4-4-4-4-4--|
C||--4---4-4-4-4-4---4-4-4-4-4--4-4-4-4-4--|--4-4-4-4-4-4-4-4-4-4-4-4-4--|

 Solo(tabbed by venomouskiss320)

D|------------------17b-------17-21-17-16-17---------------------------------|
A|-----17b--17--------------------------------17-----------------------------|
F|--------------16--------------------------------16--14---------------------|
C|---------------------------------------------------------------------------|
G|---------------------------------------------------------------------------|
C|---------------------------------------------------------------------------|

D|---------------------------------------------------------------------------|
A|------------9-10-------10-12-9-10-12-14-10-12-14---15-12-14-15-17-15-17----|
F|----13-9-11------11-13-----------------------------------------------------|
C|---------------------------------------------------------------------------|
G|---------------------------------------------------------------------------|
C|---------------------------------------------------------------------------|

D|----14-19b--19b--17-19-17-16-17-16-14-16-----------------------------------|
A|------------------------------------------14-------------------------------|
F|---------------------------------------------------------------------------|
C|---------------------------------------------------------------------------|
G|---------------------------------------------------------------------------|
C|---------------------------------------------------------------------------|

(this part is tapped)
     (8x)     (8x)        (stop tapping at this section)
D|---17-14---16-13-----------------------------------------------------------|
A|---------------------------------------------------------------------------|
F|----------------------19-18-16-18-16-14-16-14-13-14-13-11-13-11-9----------|
C|---------------------------------------------------------------------------|
G|---------------------------------------------------------------------------|
C|---------------------------------------------------------------------------|

this part is a confusing whammy bar thing,couldnt figure it out,thanx to no whammy bar

(Dual Guitar Part)

guitar 1
D|---12p9----9--12p9-12p9----9--12p9-12p9----9--10p7-----10p7-10p7---10p7-9p7----7----|
A|--------10--------------10--------------10----------9------------9-----------9------|
F|------------------------------------------------------------------------------------|
C|------------------------------------------------------------------------------------|
G|------------------------------------------------------------------------------------|
C|------------------------------------------------------------------------------------|

D|---12p9----9--12p9-12p9----9--12p9-12p9----9--10p7-----10p7-10p7---10p7-10p7---7----|
A|--------10--------------10--------------10----------9------------9-----------9------|
F|------------------------------------------------------------------------------------|
C|------------------------------------------------------------------------------------|
G|------------------------------------------------------------------------------------|
C|------------------------------------------------------------------------------------|

D|---12p9-----9-12p9-12p9----9-12p9-12p9----9---12b--------------------------|
A|---------10-------------10-------------10----------------------------------|
F|---------------------------------------------------------------------------|
C|---------------------------------------------------------------------------|
G|---------------------------------------------------------------------------|
C|---------------------------------------------------------------------------|

guitar 2
D|---17p12----12-17p12-17p12----12-17p12-17p12-----12------------------------|
A|---------14----------------14----------------14----------------------------|
F|---------------------------------------------------------------------------|
C|---------------------------------------------------------------------------|
G|---------------------------------------------------------------------------|
C|---------------------------------------------------------------------------|

D|---14p10----10-14p10-14p10----10-14p10-14p10----10-------------------------|
A|---------12----------------12----------------12----------------------------|
F|---------------------------------------------------------------------------|
C|---------------------------------------------------------------------------|
G|---------------------------------------------------------------------------|
C|---------------------------------------------------------------------------|

D|---17p12----12-17p12-17p12----12-17p12-17p12-----12------------------------|
A|---------14----------------14----------------14----------------------------|
F|---------------------------------------------------------------------------|
C|---------------------------------------------------------------------------|
G|---------------------------------------------------------------------------|
C|---------------------------------------------------------------------------|

D|---14p10----10-14p10-14p10----10-14p10-14p10----10-------------------------|
A|---------12----------------12----------------14----------------------------|
F|---------------------------------------------------------------------------|
C|---------------------------------------------------------------------------|
G|---------------------------------------------------------------------------|
C|---------------------------------------------------------------------------|


D|---14p10----10-14p10-14p10----10-14p10-14p10----10-------------------------|
A|---------12----------------12----------------12----------------------------|
F|---------------------------------------------------------------------------|
C|---------------------------------------------------------------------------|
G|---------------------------------------------------------------------------|
C|---------------------------------------------------------------------------|

D|---17p12----12-17p12-17p12----12-17p12-17p12-----12---17b-----------------------|
A|--------14----------------14----------------14---------------------------------|
F|--------------------------------------------------------------------------------|
C|--------------------------------------------------------------------------------|
G|--------------------------------------------------------------------------------|
C|--------------------------------------------------------------------------------|



Breakdown again.

Breakdown part. 4x
Gtr. 1
D||-----------------------------------------------------------------------|
A||---s10-9---9------s10-9---9-------S10-9---10---12---10---9---10--------|
F||---------9---9~~--------9---11~~--------9----9----9----9---9----9~~----|
C||-----------------------------------------------------------------------|
G||-----------------------------------------------------------------------|
D||-----------------------------------------------------------------------|

D||-----------------------------------------------------------------------|
A||---s10-9---9------s10-9---9-------S10-9---10---12---10---9---10--------|
F||---------9---9~~--------9---11~~--------9----9----9----9---9----9*~~---|
C||-----------------------------------------------------------------------|
G||-----------------------------------------------------------------------|
D||-----------------------------------------------------------------------|

Gtr 2.
D||-----------------------------------------------------------------------|
A||-----------------------------------------------------------------------|
F||-----------------------------------------------------------------------|
C||--0---0-0---0--2---2-2---2--4---4-4---4-4---4-4--4---------------------|
G||--0---0-0---0--2---2-2---2--4---4-4---4-4---4-4--4---------------------|
D||--0---0-0---0--2---2-2---2--4---4-4---4-4---4-4--4---------------------|

Last Riff (main riff basically)
D||--------------------------------------------------------------------|
A||--------------------------------------------------------------------|
F||--------------------------------------------------------------------|
C||--------------------------------------------------------------------|
G||---------5p4-----7p4------------------------5p4-----7p4------4--7---|
D||-4-4-4-4-----4-4-----4-4--5p4-7p4---4-4-4-4-----4-4-----4-4--4--7---|

D||----------------------------------------------------|
A||----------------------------------------------------|
F||----------------------------------------------------|
C||----------------------------------------------------|
G||---------5p4-----7p4------------------------5p4-----|
D||-4-4-4-4-----4-4-----4-4--5p4-7p4---4-4-4-4-----4-4-|

D||--------------------------------------------------------|
A||--------------------------------------------------------|
F||--------------------------------------------------------|
C||------7p4 5p4-9p6-7p6-----------------------------------|
G||---------------------7p4-5p4-9p6-7p6---------4--4-4-4-4-|
D||---------------------------------------------4--4-4-4-4-|


The End. 

hope you enjoyed them.
____________________________________________________________________________

--DISAPPEAR--

Tabbed by:Joe Polen
Email:

Tuning:DGCFAD (down 1 step)

D|---------------------------------------------------------------------------|
A|---------------------------------------------------------------------------|
F|----9-9-8--8-8-9-------9-9-8--8-8-9-------5--------------------------------|
C|-2----------------2-2----------------2-5--5-7------------------------------|
G|-2--7-7-6--6-6-7--2-2--7-7-6--6-6-7--2-5--3-7------------------------------|x2
D|-0----------------0-0----------------0-3----5------------------------------|

Verse

D|---------------------------------------------------------------------------|
A|---------------------------------------------------------------------------|
F|-----9-x-7-x-5------9-x-7-x-5----12b14r12--14p12p11------------------------|
C|-2-x-9-x-7-x-5--2-x-9-x-7-x-5----------------------------------------------|
G|-2-x-7-x-5-x-3--2-x-7-x-5-x-3----------------------------------------------|x3
D|-0-x------------0-x--------------------------------------------------------|

Prechorus

D|---------------------------------------------------------------------------|
A|---------------------------------------------------------------------------|
F|-----------------------------------------------5555------------------------|
C|-4--2-9-9-8--8-8-9--7--4----------------4/5-55-5555-7777-------------------|
G|-4--2-7-7-6--6-6-7--5--4---(Pickslide)--4/5-55-3333-7777-------------------|
D|-2--0------------------2----------------2/3-33------5555-------------------|


Chorus

Guitar 1
D|---------------------------------------------------------------------------|
A|---------------------------------------------------------------------------|
F|---------------------------------------5----------------5-7----------------|
C|-2--9-9-8--8-8-9--2-2--9-9-8--8-8-9--2-5--9-9-8--8-8-9--5-7--9-9-8--8-8-9--|
G|-2--7-7-6--6-6-7--2-2--7-7-6--6-6-7--2-3--7-7-6--6-6-7--3-5--7-7-6--6-6-7--|
D|-0----------------0-0----------------0-------------------------------------|

Guitar 2
e|---------------------------------------------------------------------------|
B|---------------------------------------------------------------------------|
G|---------------------------------------5~---------------5-7~---------------|
D|-------------------------------------2-5~---------------5-7~---------------|
G|-------------------------------------2-3~---------------3-5~---------------|
E|-------------------------------------0-------------------------------------|

Verse

D|---------------------------------------------------------------------------|
A|---------------------------------------------------------------------------|
F|-----9-x-7-x-5------9-x-7-x-5----12b14r12--14p12p11------------------------|
C|-2-x-9-x-7-x-5--2-x-9-x-7-x-5----------------------------------------------|
G|-2-x-7-x-5-x-3--2-x-7-x-5-x-3----------------------------------------------|x3
D|-0-x------------0-x--------------------------------------------------------|

Prechorus

D|---------------------------------------------------------------------------|
A|---------------------------------------------------------------------------|
F|-----------------------------------------------5555------------------------|
C|-4--2-9-9-8--8-8-9--7--4----------------4/5-55-5555-7777-------------------|
G|-4--2-7-7-6--6-6-7--5--4---(Pickslide)--4/5-55-3333-7777-------------------|
D|-2--0------------------2----------------2/3-33------5555-------------------|


Chorus

Guitar 1
D|---------------------------------------------------------------------------|
A|---------------------------------------------------------------------------|
F|---------------------------------------5----------------5-7----------------|
C|-2--9-9-8--8-8-9--2-2--9-9-8--8-8-9--2-5--9-9-8--8-8-9--5-7--9-9-8--8-8-9--|
G|-2--7-7-6--6-6-7--2-2--7-7-6--6-6-7--2-3--7-7-6--6-6-7--3-5--7-7-6--6-6-7--|
D|-0----------------0-0----------------0-------------------------------------|

Guitar 2
D|---------------------------------------------------------------------------|
A|---------------------------------------------------------------------------|
F|---------------------------------------5~---------------5-7~---------------|
C|-------------------------------------2-5~---------------5-7~---------------|
G|-------------------------------------2-3~---------------3-5~---------------|
D|-------------------------------------0-------------------------------------|


Bridge

D|---------------------------------------------------------------------------|
A|---------------------------------------------------------------------------|
F|-5--------------------7----------------------------------------------------|
C|-5-5p3-5p3---5p3-5p3--7-7p5-7p5---7p5-7p5----------------------------------|
G|-3--------------------5----------------------------------------------------|
D|---------------------------------------------------------------------------|


Solo(tabbed by zorroboy56)

(solo)(Tremolo picking)			
D|------------------------------|---------------------------------------------------|
A|------------------------------|----------------------------13--12--15--13--17--15-|
F|------------------------------|-9--12--11--14--12--16--14-------------------------|
C|-4-4-4-4-5-5-5-5-9-9-9-7-7-7-7|---------------------------------------------------|
G|------------------------------|---------------------------------------------------|
D|------------------------------|---------------------------------------------------|

D|-----------------------------------18-18-18-18-18-18-18-18-19-19-19-19-19-19-19-19|
A|--19--17--20p19p20-17—20p19p20-17-------------------------------------------------|
F|----------------------------------------------------------------------------------|
C|----------------------------------------------------------------------------------|
G|----------------------------------------------------------------------------------|
D|----------------------------------------------------------------------------------|

(Many Hammer Ons)
D|--12h15-------------------------7h10----------------------------------------------|
A|--------12h15------------------------7h10-----------------------------------------|
F|--------------12h14-----------------------7h9------------9---11--12---14----------|
C|--------------------12h14---------------------7h9---------------------------------|
G|--------------------------12h15-------------------7h10---7---9---10---12----------|
D|----------------------------------------------------------------------------------|

(Ascending with wah)
D|-----------------------------------------------------------------------------19---|
A|-----------------------------17h19h20-----------------------------17h19h20--------|
F|--------------------17h19h20-----------------------------17h19h20-----------------|
C|-----------17h19h20-----------------------------17h19h20--------------------------|
G|--17h19h20-----------------------------17h19h20-----------------------------------|
D|----------------------------------------------------------------------------------|

(end solo)





D|---------------------------------------------------------------------------|
A|---------------------------------------------------------------------------|
F|---------9-7-5-5555-5-7----------------------------------------------------|
C|-2-2222--9-7-5-5555-5-7----------------------------------------------------|
G|-2-2222--7-5-3-3333-3-5----------------------------------------------------|x5
D|-0-0000--------------------------------------------------------------------|
     -PM-        -PM-


Prechorus

D|---------------------------------------------------------------------------|
A|---------------------------------------------------------------------------|
F|-----------------------------------------------5555------------------------|
C|-4--2-9-9-8--8-8-9--7--4----------------4/5-55-5555-7777-------------------|
A|-4--2-7-7-6--6-6-7--5--4---(Pickslide)--4/5-55-3333-7777-------------------|
D|-2--0------------------2----------------2/3-33------5555-------------------|

Chorus


Guitar 1
D|---------------------------------------------------------------------------|
A|---------------------------------------------------------------------------|
F|---------------------------------------5----------------5-7----------------|
C|-2--9-9-8--8-8-9--2-2--9-9-8--8-8-9--2-5--9-9-8--8-8-9--5-7--9-9-8--8-8-9--|
G|-2--7-7-6--6-6-7--2-2--7-7-6--6-6-7--2-3--7-7-6--6-6-7--3-5--7-7-6--6-6-7--|
D|-0----------------0-0----------------0-------------------------------------|

Guitar 2
D|---------------------------------------------------------------------------|
A|---------------------------------------------------------------------------|
F|---------------------------------------5~---------------5-7~---------------|
C|-------------------------------------2-5~---------------5-7~---------------|
G|-------------------------------------2-3~---------------3-5~---------------|
D|-------------------------------------0-------------------------------------|

Outro
D|---------------------------------------------------------------------------------|
A|---------------------------------------------------------------------------------|
F|-----------------------------------------10-10-9--9-9-10-------10-10-9--9-9-7---5|
C|-2--9-9-8--8-8-9--2-2--9-9-8--8-8-9--2-2------------------2-2-----------------5-5|
G|-2--7-7-6--6-6-7--2-2--7-7-6--6-6-7--2-2--8--8-7--7-7--8--2-2---8--8-7--7-7-5-5-3|
D|-0----------------0-0----------------0-0------------------0-0-----------------3--|
____________________________________________________________________________

--TAKE IT OUT ON ME--

Tabbed by: marco66666
Email: marco66666@gmail.com

Tuning: DGCFAD (Guitar Tune down 1 Step)

Enjoy!!!

Chorus:

D|----------------------------------------------------------|
A|----------------------------------------------------------|
F|----------------------------------------------------------| X6
C|----2-0-2-0-----2-0-2-0-----2-0-2-0--x-x-3-2-0------------|
G|-2-----------2-----------2---------------------3-2-0------|
D|-0-----------0-----------0---------------------------3----|

D|-----------------------------------------------------------|
A|-----------------------------------------------------------|
F|-----------------------------------------------------------|
C|----4-2-4-2-----4-2-4-2----4-2-4-2---x-x-5-4---------------|
G|-2-----------2-----------2-------------------7-5-4---------|
D|-2-----------2-----------2--------------------------7-5—---|

D|---------------------------------------------|
A|-----------------------------------5---------|
F|-------------------------3--2--3---5---------|
C|----2-0-2-0-----2-0-2-0--3--2--3---3--3-3-3--|
G|-2-----------2-----------1------------3-3-3--|
D|-0-----------0------------------------1-1-1--|


Verse :


D|--------------------------------------------------------|
A|--------------------------------------------------------|
F|----------5~~~~~~--7~~~~~~------------------------------|  X4
C|-2~~~~~~--5~~~~~~--7~~~~~~-----2-0-2-0-2-----3-2-3-2-3--|
G|-2~~~~~~--3~~~~~~--5~~~~~~--2-------------2-------------|
D|-0~~~~~~--------------------0-------------0-------------|

Pre Chorus (Guitar 1) :

D|--------------------------------------------------|
A|--------------------------------------------------|
F|-5~~~~~~------------------5-5---------------------|
C|-5~~~~~~------------------5-5--0-5-4-5-7-5-4p5p4--|
G|-3~~~~~~-22222222---------3-3-------------------
Calificar esta versión:
Aviso: Este fichero es trabajo propio de su transcriptor y representa su interpretación personal de la canción. El material contenido en esta página es para exclusivo uso privado, por lo que se prohibe su reproducción o retransmisión, así como su uso para fines comerciales.