Say Goodnight (acustico), Bullet For My Valentine (tablatura)

Autor: yoni5 | 37277 visualizaciones

--SAY GOODNIGHT(ACOUSTIC)--

----------
intro    |
----------

E|--------------------------|--------------------------|
B|--------------------------|--------------------------|
G|--------------0-----------|--------0-----------0-----|
D|--------4--------4-----4--|-----------4--0--4-----4- 
A|-----7-----7--------7-----|-----7--------------------| 
E|--0-----------------------|--0-----------------------|

repite versoo 1
---------
verse 1 |
---------


E|------------------------|------------------------|------------------------|
B|-------------5--0-------|------------------------|-------------5--0-------|
G|-------4--0--------0----|------------------------|-------4--0--------0----|
D|------------------------|----4--5-----4--5--4----|------------------------|
A|----7-----------------2-|-3--------5-----------5-|----7-----------------2-|
E|-0----------------------|------------------------|-0----------------------|


E|-----------------------|------------------------|-------------------------|
B|-3---------------------|-------------5--0-------|-------------------------|
G|-0---------------------|-------4--0--------0----|-------------------------|
D|-2---------------5--4--|------------------------|----4--5-----4--5--4-----|
A|-3---------------------|----7-----------------2-|-3--------5-----------5--|
E|-----------------------|-0----------------------|-------------------------|

E|--------------------------|--------------------------|
B|--------------5--0--------|--------------------------|
G|--------4--0--------0-----|--------------------------|
D|--------------------------|-----4--5-----4--5--4-----|
A|-----7-----------------2--|--3--------5-----------3--|
E|--0-----------------------|--------------------------|


--------
chorus |
--------


E|-------------0----------|-------0------------------|------------------------|
B|-------3--------3--3----|----------3---------------|-------------5--0-------|
G|----------0-------------|----0---------------------|-------4--0--------0----|
D|----2-------------------|------------------4--5--4-|------------------------|
A|-3--------------------3-|-3-----------3/5----------|----7-------------------|
E|------------------------|--------------------------|-0--------------------0-|

E|-------0------------------|-------------0----------|-------0------------------|
B|----------3---------------|-------3--------3--3----|----------3---------------|
G|----0---------------------|----------0-------------|----0---------------------|
D|------------------4--5--4-|----2-------------------|------------------4--5--4-|
A|-3-----------3/5----------|-3--------------------3-|-3-----------3/5----------|
E|--------------------------|------------------------|--------------------------|

E|-0~--|------------------|------------------------|------------------------|
B|-5~--|------------------|-------------5--0-------|------------------------|
G|-4~--|------------------|-------4--0--------0----|------------------------|
D|-0~--|------------5--4--|------------------------|----4--5-----4--5--4----|
A|-7~--|------------------|----7-----------------2-|-3--------5-----------3-|
E|-0~--|------------------|-0----------------------|------------------------|

E|------------------------|------------------------|------------------------|
B|-------------5--0-------|------------------------|-------------5--0-------|
G|-------4--0--------0----|------------------------|-------4--0--------0----|
D|------------------------|----4--5-----4--5--4----|------------------------|
A|----7-----------------2-|-3--------5-----------3-|----7-----------------2-|
E|-0----------------------|------------------------|-0----------------------|

E|--------------------------|--------------------------|
B|--------------------------|--------------5--0--------|
G|--------------------------|--------4--0--------0-----|    X2
D|-----4--5-----4--5--4-----|--------------------------|
A|--3--------5-----------3--|-----7-----------------2--|
E|--------------------------|--0-----------------------|

------------------------------------
chorus 2 is only chorus 1 repeated |
------------------------------------


----------
verse 2  |
----------

E|------0------------------|-------------------------|----------------------------|
B|---------3---------------|-------------------------|----------------------------|
G|---0---------------------|-------------------------|-----5--5-----------7--7--7-|
D|-----------------4--5--4-|--2--2--2--2--2--2--2--2-|-2---5--5--5--5--5--7--7--7-|
A|3-----------3/5----------|--2--2--2--2--2--2--2--2-|-2---3--3--5--5--5--5--5--5-|
E|-------------------------|--0--0--0--0--0--0--0--0-|-0---------3--3--3----------|

E|------------------------------|--------------------------|
B|------------------------------|--------------------------|
G|---------------------------5--|--5--5-----------7--7--7--|  X8
D|--2------x--2--2--2--x--2--5--|--5--5--5--5--5--7--7--7--|
A|--2------x--2--2--2--x--2--3--|--3--3--5--5--5--5--5--5--|
E|--0------x--0--0--0--x--0-----|--------3--3--3-----------|

--------
Break  |
--------

E|--------------------------|------|
B|--------------------------|------|
G|--------------------------|------|
D|-----4--5-----4--5--4-----|--2---|    X3
A|--3--------5-----------3--|--2---|
E|--------------------------|--0---|

E|--------------------------|
B|--------------------------|
G|--------------------------|   [then repeat verse 2 four times]
D|-----4--5-----4--5--4-----|
A|--3--------5-----------3--|
E|--------------------------|

E|-------|
B|-------|
G|-------|
D|--2~---|
A|--2~---|
E|--0~---|

end.

Calificar esta versión:
Aviso: Este fichero es trabajo propio de su transcriptor y representa su interpretación personal de la canción. El material contenido en esta página es para exclusivo uso privado, por lo que se prohibe su reproducción o retransmisión, así como su uso para fines comerciales.