Room 409, Bullet For My Valentine (tablatura)

Autor: thrasher18 | 42645 visualizaciones

Intro
=====
---------------------------------------------------------------------------|
---------------------------------------------------------------------------|
---------------------------------------------------------------------------|
---------------------------------------------------------------------------|
-8-------8-------------7--------7-------------8--------8-------------------|
---0-0-0---0-0-0-00-0----0-0-0----0-0-0-00-0----0-0-0----0-0-0-00-0--------|
continued
--------------|
--------------|
--------------|
--------------|
-7------------|
---0-0-0-2b---|

---------------------------------------------------------------------------|
---------------------------------------------------------------------------|
---------------------------------------------------------------------------|
---------------------------------------------------------------------------|
-8-------8-------------7--------7-------------8--------8-------------------|
---0-0-0---0-0-0-00-0----0-0-0----0-0-0-00-0----0-0-0----0-0-0-00-0--------|
continued
----------------------------|
----------------------------|
----------------------------|
----------------------------|
-7h8-7h8-7h8-7h8--8p7p5p3---|
----------------------------|

Chorus
======
---------------------------------------------------------|
---------------------------------------------------------|
---------------------------------------------------------|
-7-000-7-000-000-0--5-000-5-000--0-0--7-000-7-000--00-0--|
-7-000-7-000-000-0--5-000-5-000--0-0--7-000-7-000--00-0--|
-7-000-7-000-000-0--5-000-5-000--0-0--7-000-7-000--00-0--|
             ... .               . .               .. .

ENDING 1;

--------------------------|
--------------------------|
--------------------------|
--------------------------|
--------------------------|
--8tp-7tp-5tp-7tp-5tp-3tp-|

ENDING 2;

----------------|
----------------|
----------------|
-8-7-5-7-5-3--0-|
-8-7-5-7-5-3--0-|
-8-7-5-7-5-3--0-|

Order; Ending 1, Ending 2

Verse
=====
--------------------------------------------------------------------|
--------------------------------------------------------------------|
--------------------------------------------------------------------| x2
------7-5--------8-7-------10-7-------------------------------------|
--------------------------------------------------------------------|
-0000------00000-----00000------0--7h8p7h8p7h8p7--9h10p9h10p9h10p9--|

--------------------------------------------------------------------|
--------------------------------------------------------------------|
------8-7-------10-7--------5-7-------------------------------------| x2
------8-7-------10-7--------5-7-------------------------------------|
------6-5-------8--5--------3-5-------------------------------------|
-0000------0000--------0000------7h8p7h8p7h8p7--9h10p9h10p9h10p9----|


Pre-Chorus
==========
---------------------------------------------------------------------------|
---------------------------------------------------------------------------|
---------------------------------------------------------------------------|
-------------------------------------------------------------------8-8-8-8-|
-8-------8------------7-------7-------------8-------8--------------8-8-8-8-|
---0-0-0---0-0-0-00-0---0-0-0---0-0-0-0-0-0---0-0-0---0-0-0-00-0---8-8-8-8-|

Chorus
Verse
Chorus

Solo
====
-22b(and octave/phaser)-
------------------------|
------------------------|
------------------------|
------------------------|
------------------------|

-------------------------------------|
-------------------------------------|
-------------------------12h13h14h15-|
-12h13h14h15h14h15h16h17-------------|
-------------------------------------|
-------------------------------------|

-------------------------------------------------|
-------------------------------------------------|
-------------------------12h13h14h15h14h15h16h17-|
-12h13h14h15h14h15h16h17-------------------------|
-------------------------------------------------|
-------------------------------------------------|

-------------------------------------------------|
-------------------------------------------------|
-------------------------12h13h14h15h14h15h16h17-|
-12h13h14h15h14h15h16h17-------------------------|
-------------------------------------------------|
-------------------------------------------------|

-------------12h13h14h15--------------12h13h14h15-|
-12h13h14h15--------------12h13h14h15-------------|
--------------------------------------------------|
--------------------------------------------------|
--------------------------------------------------|
--------------------------------------------------|

-17p15p13h15h17p15p13h15-
-------------------------|
-------------------------|
-------------------------|
-------------------------|
-------------------------|

-17tp-15tp-18tp-17tp--17tp-15tp------13tp-|
--------------------------------17tp------|
------------------------------------------|
------------------------------------------|
------------------------------------------|
------------------------------------------|

Bridge x4
======
-------------------------------------------|
-------------------------------------------|
-2p0---------3p0-2p0-----------------------|
-----5p0-3p0---------5-7-5--000-222-333-55-|
----------------------------000-222-333-55-|
----------------------------000-222-333-55-|
                     . . .

Bridge 2
========
-------------------5-3---------------------5-6-|
-----------------------------------------------|
-----------------3-----------------------3-----|
-8-0--8-0--8-0-----------8-0--8-0--8-0---------|
-8-0--8-0--8-0-----------8-0--8-0--8-0---------|
-8-0--8-0--8-0-----------8-0--8-0--8-0---------|

-----------------------------------------------------------5-6-|
---------------------------6-8*--------------------------------|
-------------------------3-------------------------------3-----|
-8-0--8-0--0000-8-0-8-0----------8-0--8-0--0000-8-0-8-0--------|
-8-0--8-0--0000-8-0-8-0----------8-0--8-0--0000-8-0-8-0--------|
-8-0--8-0--0000-8-0-8-0----------8-0--8-0--0000-8-0-8-0--------|
           ....                            ....

---------------------------------------------------------------------------|
---------------------------------------------------------------------------|
---------------------------------------------------------------------------|
---------------------------------------------------------------------------|
-8-------8-------------7--------7-------------8--------8-------------------|
---0-0-0---0-0-0-00-0----0-0-0----0-0-0-00-0----0-0-0----0-0-0-00-0--------|
continued
----------------------------|
----------------------------|
----------------------------|
----------------------------|
-7h8-7h8-7h8-7h8--8p7p5p3---|
----------------------------|

Chorus

Outro
=====
--------------------------|
--------------------------|
--------------------------|
--------------------------|
--------------------------|
-10tp-8tp-7tp-8tp-7tp-5tp-|

-------------------------------------------------------|
-------------------------------------------------------|
-------------------------------------------------------|
------7-5-------8-7-------10-7-------------------------|
-------------------------------------------------------|
-0000-----00000-----00000-------7-8-7-8---10-12-10-8-0-|
                                . . . .   .  .   . . .




----------------------------------------------------------------------------
			     The Poison
----------------------------------------------------------------------------


Intro
=====
-------------------------------------------------|
-------------------------------------------------|
-------------------------------------------------| x3
-------------------------------------------------|
-7h10t14--7h10t15--7h10t14--7h10t15--7h10t15/t17-|
-------------------------------------------------|

--------------------------------------------|
--------------------------------------------|
--------------------------------------------|
--------------------------------------------|
-7h10t14--7h10t15--7h10-15-14-12-10-12-10-9-|
--------------------------------------------|

Verse
=====
-----------------------------------------------------|
-----------------------------------------------------|
-----------------------------------------------------|
-10-1010101010--5-5--9-9--2-22-22-22--10-9-7-5-7-5-4-|
-10-1010101010--5-5--9-9--2-22-22-22-----------------|
-10-1010101010--5-5--9-9--2-22-22-22-----------------|
    . . . . .               .. .. ..
--------------------------------------------|
--------------------------------------------|
--------------------------------------------|
-5-5555-777-444--2-22-22-22--10-9-7-5-7-5-4-|
-----------------2-22-22-22-----------------|
-----------------2-22-22-22-----------------|
                   .. .. ..
-----------------------------------------------------|
-----------------------------------------------------|
-----------------------------------------------------|
-10-1010101010--5-5--9-9--2-22-22-22--10-9-7-5-7-5-4-|
-10-1010101010--5-5--9-9--2-22-22-22-----------------|
-10-1010101010--5-5--9-9--2-22-22-22-----------------|
    . . . . .               .. .. ..
----------------|
----------------|
----------------|
-5-5555-777-444-|
----------------|
----------------|

Intro

Verse 2
=======
-----------------------------------------------------|
-----------------------------------------------------|
-----------------------------------------------------|
-10-1010101010--5-5--9-9--2-22-22-22--10-9-7-5-7-5-4-|
-10-1010101010--5-5--9-9--2-22-22-22-----------------|
-10-1010101010--5-5--9-9--2-22-22-22-----------------|
    . . . . .               .. .. ..
--------------------------------------------|
--------------------------------------------|
--------------------------------------------|
-5-5555-777-444--2-22-22-22--10-9-7-5-7-5-4-|
-----------------2-22-22-22-----------------|
-----------------2-22-22-22-----------------|
                   .. .. .. 
-----------------------------------------------------|
-----------------------------------------------------|
-----------------------------------------------------|
-10-1010101010--5-5--9-9--2-22-22-22--10-9-7-5-7-5-4-|
-10-1010101010--5-5--9-9--2-22-22-22-----------------|
-10-1010101010--5-5--9-9--2-22-22-22-----------------|
    . . . . .               .. .. ..
-----------------|
-----------------|
-----------------|
-5-5555-777--2-2-|
-------------2-2-|
-------------2-2-|
             . .

Chorus
======
------------------------|
------------------------|
------------------------| x2
-2---10---5---10-10-9-9-|
-2---10---5---10-10-9-9-|
-2---10---5---10-10-9-9-|

-----------------------------|
-----------------------------|
-----------------------------|
-22-22-22-22--10-9-7-5-7-5-4-|
-22-22-22-22-----------------|
-22-22-22-22-----------------|
 .. .. .. ..

Verse 2

Chorus 2
========
------------------------|
------------------------|
------------------------| x2
-2---10---5---10-10-9-9-|
-2---10---5---10-10-9-9-|
-2---10---5---10-10-9-9-|

Bridge 1
========
------------------------------------------------------------|
------------------------------------------------------------|
----------------------------------------------2-------------|
-----4p2-5h4p2------5p2-4h5-------5p2-4p2-5p2---5p2-4h5p4-2-|  x2
-2-2------------3-3-----------5-5---------------------------|
-2-2--------------------------------------------------------|

Pre-Solo
========
-------------------------|
-------------------------|
-------------------------|
-2-2-2-2--10-9-7-5-7-5-4-|
-2-2-2-2-----------------|
-2-2-2-2-----------------|

Solo
====
-------12--------10--------12--------14--------|
-----------------------------------------------|
-11-12-----11-12-----11-12-----11-12-----11-12-|
-----------------------------------------------|
-----------------------------------------------|
-----------------------------------------------|

-------------------------------------------------|
-------------------------------------------------|
-16p14p12h14p12p11h12p11p9h11p9p7h9p7p5h7p5h7h9~-
-------------------------------------------------|
-------------------------------------------------|
-------------------------------------------------|

-15----------------|
----17----17-------|
-------16----16----| x4
----------------17-|
-------------------|
-------------------|

-15--------------------------------------------------|
----17----15-------12-------10-------------------17*-|
-------16----16-14----14-12----12-11--12-11-7-9------|
-----------------------------------------------------|
-----------------------------------------------------|
-----------------------------------------------------|

----17-15-14-15-14-12-10-12-14-15-17-19-|
-12-------------------------------------|
----------------------------------------|
----------------------------------------|
----------------------------------------|
----------------------------------------|

-19-19-15-17-15--------------19-19-15-17-15----|
----------------17-12-15-17-----------------17-|
-----------------------------------------------|
-----------------------------------------------|
-----------------------------------------------|
-----------------------------------------------|

-12b-14b-15b-17b-|
-----------------|
-----------------|
-----------------|
-----------------|
-----------------|

-19-22-22p19p17--19-22-22p19p17--19-22-22p19p17--19-22-19-22-24b-|
-----------------------------------------------------------------|
-----------------------------------------------------------------|
-----------------------------------------------------------------|
-----------------------------------------------------------------|
-----------------------------------------------------------------|

Break x2
=====
------------------    ------|
------------------    -5555-|
------------------    ------|
-222222---2222222- x2 ------|
-222222---2222222-    ------|
-222222---2222222-    ------|
 ......   .......

Bridge 2 x2
========
--------------------------------------------------------------------|
--------------------------------------------------------------------|
--------------------------------------------------------------------|
-2222-2-2222-2-22-2-2/333-3-3333-3-333-3-5555-5-5555-5-5/333-3------|
-2222-2-2222-2-22-2-2/333-3-3333-3-333-3-5555-5-5555-5-5/333-3------|
-2222-2-2222-2-22-2-2/333-3-3333-3-333-3-5555-5-5555-5-5/333-3------|
 ....   ....   ..     ...   ....   ...   ....   ....     ...   
continued
-----------------------|
-----------------------|
-----------------------|
--5-7-------7-5--------|
-------8-7-------8-7---|
-----------------------|
  . .  . .  . .  . .
Intro
Chorus (Acoustic)
======
----------------------|
----------------------|
----------------------| x2
-2222--10101010--5555-|
-2222--10101010--5555-|
-2222--10101010--5555-|

Chorus 2
========
------------|
------------|
------------|
-10-10--9-9-|
-10-10--9-9-|
-10-10--9-9-|

------------------------|
------------------------|
------------------------| x2
-2---10---5---10-10-9-9-|
-2---10---5---10-10-9-9-|
-2---10---5---10-10-9-9-|

---------------------------------|
---------------------------------|
---------------------------------|
-2---10---5---0---2---10---5---9-|
-2---10---5---0---2---10---5---9-|
-2---10---5---0---2---10---5---9-|

Bridge 1 x4

Outro
=====
------------------------------|
------------------------------|
------------------------------|
--2-2-2-2--10-9-7-5-7-5-4-0-2-|
--2-2-2-2---------------------|
--2-2-2-2---------------------|
Calificar esta versión:
Aviso: Este fichero es trabajo propio de su transcriptor y representa su interpretación personal de la canción. El material contenido en esta página es para exclusivo uso privado, por lo que se prohibe su reproducción o retransmisión, así como su uso para fines comerciales.