Four Words To Choke Upon, Bullet For My Valentine (tablatura)

Autor: thrasher18 | 20486 visualizaciones

Intro


Guitar 1
D||--------14-------14----14-------15-------15----15-----------------------|
A||--12-12----12-12----12----12-12----12-12----12--------Times-3-----------|
F||------------------------------------------------------------------------|
C||------------------------------------------------------------------------|
G||------------------------------------------------------------------------|
C||------------------------------------------------------------------------|

D||--------14-------14----14-------17-------17----17-----------------------|
A||--12-12----12-12----12----12-12----12-12----12--------------------------|

Guitar 2
D||------------------------------------------------------------------------|
A||------------------------------------------------------------------------|
F||------------------------------------------------------------------------|
C||-0----------------------------------------------------------------------|
G||-0--Let-Ring-Out--Times-4-----------------------------------------------|
C||-0----------------------------------------------------------------------|
   On 2nd and 4th time, slide the pick down the fret board.

Both Guitars
D||------------------------------------------------------------------------|
A||------------------------------------------------------------------------|
F||------------------------------------------------------------------------|
C||-0--1--0--1--0--1--0--1--0--1--0----------------------------------------|
G||-0--1--0-----0--1--0-----0--1--0----------------------------------------|
C||-0--1--0-----0--1--0-----0--1--0----------------------------------------|
    .  .  .  #  .  .  .  #  .  .  .


Verse

Guitar 1
D||------------------------------------------------------------------------|
A||------------------------------------------------------------------------|
F||--------14-------14----14-------15-------15----15-----------------------|
C||--12-12----12-12----12----12-12----12-12----12--------Times-3-----------|
G||------------------------------------------------------------------------|
C||------------------------------------------------------------------------|


Guitar 2
D||---------------------------------------------------------------------|
A||---------------------------------------------------------------------|
F||---------------------------------------------------------------------|
C||-3--1--0----3--1--0----3--1--0----0--1--0--1-0--1--0--1-0--1--0----3-|
G||-3--1--0----3--1--0----3--1--0----0--1--0----0--1--0----0--1--0-x2-3-|
C||-3--1--0----3--1--0----3--1--0----0--1--0----0--1--0----0--1--0----3-|
    .  .  .    .  .  .    .  .  .    .  .  .  # .  .  .  # .  .  .


Chorus

Guitar 1
D||------------------------------------------------------------------------|
A||------------------------------------------------------------------------|
F||------------------------------------------------------------------------|
C||------------------------------------------------------------------------|
G||-7-5-0-7-5-0-7-5-0-7-5-0-7-5-7-5---3-2-0-3-2-0-3-2---8-7-5-8-5-8-5------|
C||------------------------------------------------------------------------|


D||------------------------------------------------------------------------|
A||------------------------------------------------------------1/5---8-7-3-|
F||------------------------------------------------------------------------|
C||------------------------------------------------------------------------|
G||-7-5-0-7-5-0-7-5-0-7-5-0-7-5-7-5---3-2-0-3-2-0-3-2---8-7-5--------------|
C||------------------------------------------------------------------------|


D||------------------------------------------------------------------------|
A||------------------------------------------------------------------------|
F||-0-0-0-0-0-0-0-0-0-0-0-0-0-0-0------------------------------------------|
C||----------------------------------8-----7-----3-------------------------|
G||------------------------------------------------------------------------|
C||------------------------------------------------------------------------|


Guitar 2
D||------------------------------------------------------------------------|
A||------------------------------------------------------------------------|
F||------------------------------------------------------------------------|
C||-7-7-7-7-7-7-7-7-7-7-7-7-7-7-7--8-8-8-8-8-8-8--7-7-7--3-3-3-------------|
G||-5-5-5-5-5-5-5-5-5-5-5-5-5-5-5--8-8-8-8-8-8-8--7-7-7--3-3-3-------------|
C||-0-0-0-0-0-0-0-0-0-0-0-0-0-0-0--8-8-8-8-8-8-8--7-7-7--3-3-3-------------|


D||------------------------------------------------------------------------|
A||------------------------------------------------------------------------|
F||------------------------------------------------------------------------|
C||-7-7-7-7-7-7-7-7-7-7-7-7-7-7-7--8-8-8-8-8-8-8--10-10-10--3-3-3----------|
G||-5-5-5-5-5-5-5-5-5-5-5-5-5-5-5--8-8-8-8-8-8-8--10-10-10--3-3-3----------|
C||-0-0-0-0-0-0-0-0-0-0-0-0-0-0-0--8-8-8-8-8-8-8--10-10-10--3-3-3----------|


D||------------------------------------------------------------------------|
A||------------------------------------------------------------------------|
F||------------------------------------------------------------------------|
C||-7-7-7-7-7-7-7-7-7-7-7-7-7-7-7--8-8-8-8-8-8-8--7------3-----------------|
G||-5-5-5-5-5-5-5-5-5-5-5-5-5-5-5--8-8-8-8-8-8-8--7------3-----------------|
C||-0-0-0-0-0-0-0-0-0-0-0-0-0-0-0--8-8-8-8-8-8-8--7------3-----------------|


D||------------------------------------------------------------------------|
A||------------------------------------------------------------------------|
F||------------------------------------------------------------------------|
C||-7-7-7-7-7-7-7-7-7-7-7-7-7-7-7------------------------------------------|
G||-5-5-5-5-5-5-5-5-5-5-5-5-5-5-5------------------------------------------|
C||-0-0-0-0-0-0-0-0-0-0-0-0-0-0-0------------------------------------------|


Both Guitars
D||------------------------------------------------------------------------|
A||------------------------------------------------------------------------|
F||--------7-------7---------7/8-7/8-------7-------7-----------------------|
C||--------x-------x---------x-x-x-x-------x-------x-----------------------|
G||--------5-------5---------5/6-5/6-------5-------5-----------------------|
C||--0-0-0---0-0-0---0-0-0-0---------0-0-0---0-0-0---0-0-0-0--5b-----------|
     . . .   . . .   . . . .         . . .   . . .   . . . . 

D||------------------------------------------------------------------------|
A||------------------------------------------------------------------------|
F||--------7-------7---------7/8-7/8-------7-------7-----------------------|
C||------------------------------------------------------------------------|
G||--------5-------5---------5/6-5/6-------5-------5-----------------------|
C||--0-0-0---0-0-0---0-0-0-0---------0-0-0---0-0-0---0-0-0-0--12/0---------|
     . . .   . . .   . . . .         . . .   . . .   . . . .

D||------------------------------------------------------------------------|
A||------------------------------------------------------------------------|
F||------------------------------------------------------------------------|
C||--0--1--0--1-0--1--0--1-0--1--0-----------------------------------------|
G||--0--1--0----0--1--0----0--1--0-----------------------------------------|
C||--0--1--0----0--1--0----0--1--0-----------------------------------------|
     .  .  .  # .  .  .  # .  .  .


Verse

Guitar 1
D||------------------------------------------------------------------------|
A||------------------------------------------------------------------------|
F||--------14-------14----14-------15-------15----15-----------------------|
C||--12-12----12-12----12----12-12----12-12----12--------Times-3-----------|
G||------------------------------------------------------------------------|
C||-------------------------------------------------------------------------


Guitar 2
D||---------------------------------------------------------------------|
A||---------------------------------------------------------------------|
F||---------------------------------------------------------------------|
C||-3--1--0----3--1--0----3--1--0----0--1--0--1-0--1--0--1-0--1--0----3-|
G||-3--1--0----3--1--0----3--1--0----0--1--0----0--1--0----0--1--0-x2-3-|
C||-3--1--0----3--1--0----3--1--0----0--1--0----0--1--0----0--1--0----3-|
    .  .  .    .  .  .    .  .  .    .  .  .  # .  .  .  # .  .  .

Chorus

Guitar 1
D||------------------------------------------------------------------------|
A||------------------------------------------------------------------------|
F||------------------------------------------------------------------------|
C||------------------------------------------------------------------------|
G||-7-5-0-7-5-0-7-5-0-7-5-0-7-5-7-5---3-2-0-3-2-0-3-2---8-7-5-8-5-8-5------|
C||------------------------------------------------------------------------|


D||------------------------------------------------------------------------|
A||------------------------------------------------------------1/5---8-7-3-|
F||------------------------------------------------------------------------|
C||------------------------------------------------------------------------|
G||-7-5-0-7-5-0-7-5-0-7-5-0-7-5-7-5---3-2-0-3-2-0-3-2---8-7-5--------------|
C||------------------------------------------------------------------------|


D||------------------------------------------------------------------------|
A||------------------------------------------------------------------------|
F||-0-0-0-0-0-0-0-0-0-0-0-0-0-0-0------------------------------------------|
C||----------------------------------8-----7-----3-------------------------|
G||------------------------------------------------------------------------|
C||------------------------------------------------------------------------|


Guitar 2
D||------------------------------------------------------------------------|
A||------------------------------------------------------------------------|
F||------------------------------------------------------------------------|
C||-7-7-7-7-7-7-7-7-7-7-7-7-7-7-7--8-8-8-8-8-8-8--7-7-7--3-3-3-------------|
G||-5-5-5-5-5-5-5-5-5-5-5-5-5-5-5--8-8-8-8-8-8-8--7-7-7--3-3-3-------------|
C||-0-0-0-0-0-0-0-0-0-0-0-0-0-0-0--8-8-8-8-8-8-8--7-7-7--3-3-3-------------|


D||------------------------------------------------------------------------|
A||------------------------------------------------------------------------|
F||------------------------------------------------------------------------|
C||-7-7-7-7-7-7-7-7-7-7-7-7-7-7-7--8-8-8-8-8-8-8--10-10-10--3-3-3----------|
G||-5-5-5-5-5-5-5-5-5-5-5-5-5-5-5--8-8-8-8-8-8-8--10-10-10--3-3-3----------|
C||-0-0-0-0-0-0-0-0-0-0-0-0-0-0-0--8-8-8-8-8-8-8--10-10-10--3-3-3----------|


D||------------------------------------------------------------------------|
A||------------------------------------------------------------------------|
F||------------------------------------------------------------------------|
C||-7-7-7-7-7-7-7-7-7-7-7-7-7-7-7--8-8-8-8-8-8-8--7-7-7--3-3-3-------------|
G||-5-5-5-5-5-5-5-5-5-5-5-5-5-5-5--8-8-8-8-8-8-8--7-7-7--3-3-3-------------|
C||-0-0-0-0-0-0-0-0-0-0-0-0-0-0-0--8-8-8-8-8-8-8--7-7-7--3-3-3-------------|


D||------------------------------------------------------------------------|
A||------------------------------------------------------------------------|
F||------------------------------------------------------------------------|
C||-7-7-7-7-7-7-7-7-7-7-7-7-7-7-7------------------------------------------|
G||-5-5-5-5-5-5-5-5-5-5-5-5-5-5-5------------------------------------------|
C||-0-0-0-0-0-0-0-0-0-0-0-0-0-0-0------------------------------------------|


Both Guitars
D||------------------------------------------------------------------------|
A||------------------------------------------------------------------------|
F||--------7-------7---------7/8-7/8-------7-------7-----------------------|
C||------------------------------------------------------------------------|
G||--------5-------5---------5/6-5/6-------5-------5-----------------------|
C||--0-0-0---0-0-0---0-0-0-0---------0-0-0---0-0-0---0-0-0-0--5b-----------|
     . . .   . . .   . . . .         . . .   . . .   . . . .

D||------------------------------------------------------------------------|
A||------------------------------------------------------------------------|
F||--------7-------7---------7/8-7/8-------7-------7-----------------------|
C||------------------------------------------------------------------------|
G||--------5-------5---------5/6-5/6-------5-------5-----------------------|
C||--0-0-0---0-0-0---0-0-0-0---------0-0-0---0-0-0---0-0-0-0--5b-----------|
     . . .   . . .   . . . .         . . .   . . .   . . . .

D||-------------------------------------------------------------------------|
A||--------------------------------------------------------------------|
F||--------------------------------------------------------------------|
C||--------------------------------------------------------------------|
G||--------------------------------------------------------------------|
C||-0-0-0-1-0-0-0-1-0-0-0-1---0-0-0-1-0-0-0-1-0-0-0-1---12/0-----x2----|
    . . .   . . .   . . .     . . .   . . .   . . .


Solo - Guitar 2
D||--13P12-13P12----13P12-13P12----13P12-13P12-13P12---13P12---13P12-------|
A||--------------10-------------10------------------10------10------10-----|
F||------------------------------------------------------------------------|
C||------------------------------------------------------------------------|
G||------------------------------------------------------------------------|
C||------------------------------------------------------------------------|


D||--13P12---13P12---13P12-13P12----13P12-13P12----13P12-13P12-13P12-------|
A||-------10------10------------10-------------10-------------------10-----|
F||------------------------------------------------------------------------|
C||------------------------------------------------------------------------|
G||------------------------------------------------------------------------|
C||------------------------------------------------------------------------|


D||--13P12---13P12---------------------------------------------------------|
A||-------10------10-------------------------------------------------------|
F||-------------------5/7--7/10--8--7--5--7--5--3--5--3--8/0---------------|
C||------------------------------------------------------------------------|
G||------------------------------------------------------------------------|
C||------------------------------------------------------------------------|


D||-----------13---------12---------13---------12---------13---------------|
A||--11-10-11---11-10-11---11-10-11---11-10-11---11-10-11---11-10-11-------|
F||------------------------------------------------------------------------|
C||------------------------------------------------------------------------|
G||------------------------------------------------------------------------|
C||------------------------------------------------------------------------|


D||-----------12-----------------------------------------------------------|
A||--11-10-11---11-10-11-10-11-10------------------------------------------|
F||------------------------------------------------------------------------|
C||------------------------------------------------------------------------|
G||------------------------------------------------------------------------|
C||------------------------------------------------------------------------|


D||--141414141414-131313131313-141414141414-131313131313--22b--------------|
A||------------------------------------------------------------------------|
F||------------------------------------------------------------------------|
C||------------------------------------------------------------------------|
G||------------------------------------------------------------------------|
C||--------------------------------------------------------------7b--------|


During solo guitar 1 plays
D||--------------------------------------------------------------------|
A||--------------------------------------------------------------------|
F||--------------------------------------------------------------------|
C||--------------------------------------------------------------------|
G||--------------------------------------------------------------------|
C||-0-0-0-1-0-0-0-1-0-0-0-1-----0-0-0-1-0-0-0-1-0-0-0-1----------x2----|
    . . .   . . .   . . .       . . .   . . .   . . .


D||------------------------------------------------------------------------|
A||------------------------------------------------------------------------|
F||------------------------------------------------------------------------|
C||------------------------------------------------------------------------|
G||------------------------------------------------------------------------|
C||-0-0-0-1-0-0-0-1-0-0-0-1-1b--0-0-0-1-0-0-0-1-0-0-0-1-1b-------x2--------|
    . . .   . . .   . . .       . . .   . . .   . . .

D||------------------------------------------------------------------------|
A||------------------------------------------------------------------------|
F||------------------------------------------------------------------------|
C||--8---7---3-------------------------------------------------------------|
G||--8---7---3-------------------------------------------------------------|
C||--8---7---3-------------------------------------------------------------|

Chorus

Guitar 1
D||------------------------------------------------------------------------|
A||------------------------------------------------------------------------|
F||------------------------------------------------------------------------|
C||------------------------------------------------------------------------|
G||-7-5-0-7-5-0-7-5-0-7-5-0-7-5-7-5---3-2-0-3-2-0-3-2---8-7-5-8-5-8-5------|
C||------------------------------------------------------------------------|


D||------------------------------------------------------------------------|
A||------------------------------------------------------------1/5---8-7-3-|
F||------------------------------------------------------------------------|
C||------------------------------------------------------------------------|
G||-7-5-0-7-5-0-7-5-0-7-5-0-7-5-7-5---3-2-0-3-2-0-3-2---8-7-5--------------|
C||------------------------------------------------------------------------|


D||------------------------------------------------------------------------|
A||------------------------------------------------------------------------|
F||-0-0-0-0-0-0-0-0-0-0-0-0-0-0-0------------------------------------------|
C||----------------------------------8-----7-----3-------------------------|
G||------------------------------------------------------------------------|
C||------------------------------------------------------------------------|


Guitar 2
D||------------------------------------------------------------------------|
A||------------------------------------------------------------------------|
F||------------------------------------------------------------------------|
C||-7-7-7-7-7-7-7-7-7-7-7-7-7-7-7--8-8-8-8-8-8-8--7-7-7--3-3-3-------------|
G||-5-5-5-5-5-5-5-5-5-5-5-5-5-5-5--8-8-8-8-8-8-8--7-7-7--3-3-3-------------|
C||-0-0-0-0-0-0-0-0-0-0-0-0-0-0-0--8-8-8-8-8-8-8--7-7-7--3-3-3-------------|


D||------------------------------------------------------------------------|
A||------------------------------------------------------------------------|
F||------------------------------------------------------------------------|
C||-7-7-7-7-7-7-7-7-7-7-7-7-7-7-7--8-8-8-8-8-8-8--10-10-10--3-3-3----------|
G||-5-5-5-5-5-5-5-5-5-5-5-5-5-5-5--8-8-8-8-8-8-8--10-10-10--3-3-3----------|
C||-0-0-0-0-0-0-0-0-0-0-0-0-0-0-0--8-8-8-8-8-8-8--10-10-10--3-3-3----------|


D||------------------------------------------------------------------------|
A||------------------------------------------------------------------------|
F||------------------------------------------------------------------------|
C||-7-7-7-7-7-7-7-7-7-7-7-7-7-7-7--8-8-8-8-8-8-8--7------3-----------------|
G||-5-5-5-5-5-5-5-5-5-5-5-5-5-5-5--8-8-8-8-8-8-8--7------3-----------------|
C||-0-0-0-0-0-0-0-0-0-0-0-0-0-0-0--8-8-8-8-8-8-8--7------3-----------------|


D||------------------------------------------------------------------------|
A||------------------------------------------------------------------------|
F||------------------------------------------------------------------------|
C||-7-7-7-7-7-7-7-7-7-7-7-7-7-7-7------------------------------------------|
G||-5-5-5-5-5-5-5-5-5-5-5-5-5-5-5------------------------------------------|
C||-0-0-0-0-0-0-0-0-0-0-0-0-0-0-0------------------------------------------|


Both Guitars
D||------------------------------------------------------------------------|
A||------------------------------------------------------------------------|
F||--------7-------7---------7/8-7/8-------7-------7------------12---------|
C||--------x-------x---------x-x-x-x-------x-------x-----------------------|
G||--------5-------5---------5/6-5/6-------5-------5-----------------------|
C||--0-0-0---0-0-0---0-0-0-0---------0-0-0---0-0-0---0-0-0-0---------------|
     . . .   . . .   . . . .         . . .   . . .   . . . .     #


D||------------------------------------------------------------------------|
A||------------------------------------------------------------------------|
F||--------7-------7---------7/8-7/8-------7-------7-----------------------|
C||--------x-------x---------x-x-x-x-------x-------x-----------------------|
G||--------5-------5---------5/6-5/6-------5-------5-----------------------|
C||--0-0-0---0-0-0---0-0-0-0---------0-0-0---0-0-0---0-0-0-0---------------|
     . . .   . . .   . . . .         . . .   . . .   . . . .

D||------------------------------------------------------------------------|
A||------------------------------------------------------------------------|
F||------------------------------------------------------------------------|
C||--7-8-7-8-----------2-3-2-3-0-------------------------------------------|
G||--7-8-7-8-----------2-3-2-3-0-------------------------------------------|
C||--7-8-7-8-----------2-3-2-3-0-------------------------------------------|
Calificar esta versión:
Aviso: Este fichero es trabajo propio de su transcriptor y representa su interpretación personal de la canción. El material contenido en esta página es para exclusivo uso privado, por lo que se prohibe su reproducción o retransmisión, así como su uso para fines comerciales.