Deliver Us From Evil, Bullet For My Valentine (tablatura)

Autor: yoni5 | 37427 visualizaciones

--DELIVER US FROM EVIL--


INTRO x 2


afinacion en: C G C F A D

Esta parde de la intro bah toda junta… 
Yo la dividi para k entre en la hojaa

INTRO-..

|-------------------------------
|-------------------------------
|-5-----5-----5-----5-----5---5-
|-7-----7-----7-----7-----7---7-
|-0-0-0-0-0-0-0-0-0-0-0-0-0-0-0-
|-------------------------------
PM       . .   . .   . .   . .  


--------------------------------------|
--------------------------------------|
7---7-----7-----7-----7-----7---7-9---|
7---9-----9-----9-----9-----9---9-9---|
0-0-0-0-0-0-0-0-0-0-0-0-0-0-0-0-0-0-0-|
--------------------------------------|
PM       . .   . .   . .   . .   .     


Pre verso amdas guitarras......                                       
|---------------------------------------------------|
|---------------------------------------------------|
|-4-----4-----4-----4-----4---4-5---5-----5-----5---|
|-5-----5-----5-----5-----5---5-5---7-----7-----7---|
|-0-0-0-0-0-0-0-0-0-0-0-0-0-0-0-0-0-0-0-0-0-0-0-0-0-|
|---------------------------------------------------|
PM  . .   . .   . .   . .   .     .   . .   . .   .
Fin preverso   fin preverso
Guitarra 1      Guitarra 2   
---------|               |----------|
---------|               |----------|
5-4-5--|                 |---4~----|
9-7-5-7-|                | --5~-----|
0-0-0-0-|                |---0~----|
----------|              |-0-0-0-0-|-0~-----|

Verso Guitarra 1
|-------------------------------------------------------------|
|-------------------------------------------------------------|
|-------------------7777777-555-999-7777777-------------------|
|--11111111-3333333-xxxxxxx-xxx-xxx-xxxxxxx-11111111-3333333--|
|--11111111-3333333-5555555-333-777-5555555-11111111-3333333--|
|--11111111-3333333-------------------------11111111-3333333--|

|-------------------------------
|-------------------------------
|-5-----5-----5-----5-----5---5-
|-7-----7-----7-----7-----7---7-
|-0-0-0-0-0-0-0-0-0-0-0-0-0-0-0-
|-------------------------------
PM       . .   . .   . .   . .  


--------------------------------------|
--------------------------------------|
7---7-----7-----7-----7-----7---7-9---|
7---9-----9-----9-----9-----9---9-9---|
0-0-0-0-0-0-0-0-0-0-0-0-0-0-0-0-0-0-0-|
--------------------------------------|

Pre verso amdas guitarras......                                       
|---------------------------------------------------|
|---------------------------------------------------|
|-4-----4-----4-----4-----4---4-5---5-----5-----5---|
|-5-----5-----5-----5-----5---5-5---7-----7-----7---|
|-0-0-0-0-0-0-0-0-0-0-0-0-0-0-0-0-0-0-0-0-0-0-0-0-0-|
|---------------------------------------------------|

----------|               
----------|                
5-4-5----|              
9-7-5-7-|                
0-0-0-0-|                
----------| 

Ahora repite la intro con las dos guitarras    

|---------------------------------------------------|
|---------------------------------------------------|
|-4-----4-----4-----4-----4---4-5---5-----5-----5---|
|-5-----5-----5-----5-----5---5-5---7-----7-----7---|x4
|-0-0-0-0-0-0-0-0-0-0-0-0-0-0-0-0-0-0-0-0-0-0-0-0-0-|
|---------------------------------------------------|
PM  . .   . .   . .   . .   .     .   . .   . .   .


Guitarra 2 ( observer bien los cambios… ) 
|-----------------------------------------------------------------|
|-----------------------------------------------------------------|
|-----------------------------------------------------------------|
|-----------5-----------1---------------3-----------0---3-2-0-----|
|---5-5-5-5-5---1-1-1-1-1-------3-3-3-3-3---0-0-0-0-0---------3---|
|---5-5-5-5-5---1-1-1-1-1-------3-3-3-3-3---0-0-0-0-0-------------|
    . . . .     . . . .         . . . .     . . . .
           
|-------------------------------------------------------------|
|-------------------------------------------------------------|
|-------------------------------------------------------------|
|---1----3----5----7-8----------------------------------------|
|---1----3----5----7-8----------------------------------------|
|-----1------3------5-------7-8------------------------------------------------------------|


Pre chorus
Guitarra 1
|-------------------------------------------------------------|
|------3-2----------------------------------------------------|
|----------3------7--5--3-------------------------------------|
|---1---------3------------5----------7-7-8-8-----------------|

|---1---------3------------5-5-5-5-5--7-7-8-8-----------------|
|---1---------3------------5-5-5-5-5--7-7-8-8-----------------|


|-------------------------------------------------------------|
|------3-2----------------------------------------------------|
|----------3------7--5--3-------------------------------------|
|---1---------3------------5-5-5-5-5--8-8-8-8-----------------|
|---1---------3------------5-5-5-5-5--8-8-8-8-----------------|
|---1---------3------------5-5-5-5-5--8-8-8-8-----------------|


Chorus
Guitarra 1

|-------------------------------------------------------------|
|-------------------------------------------------------------|
|-------------------7777777-555-999-7777777-------------------|
|--11111111-3333333-xxxxxxx-xxx-xxx-xxxxxxx-11111111-3333333--|
|--11111111-3333333-5555555-333-777-5555555-11111111-3333333--|
|--11111111-3333333-------------------------11111111-3333333--|



Calificar esta versión:
Aviso: Este fichero es trabajo propio de su transcriptor y representa su interpretación personal de la canción. El material contenido en esta página es para exclusivo uso privado, por lo que se prohibe su reproducción o retransmisión, así como su uso para fines comerciales.