10 Years Today, Bullet For My Valentine (tablatura)

Autor: thrasher18 | 29815 visualizaciones

This song is incomplete. I'll try and tab it myself when I get around to it.

Gtr 1 -

|-----------------------0----------------------------------------|
|-----------------------0----------------------------------------|
|----------------------------------------------------------------|
|-12-\\\\-----0-22-2-2------2-0-2----9---7------4-5---4-5p4------|
|-12-\\\\-----0-22-2-2------2-0-2-------------3-----5------------|
|-12-\\\\-----0-22-2-2------2-0-2--------------------------------|
long slide    . .. . .      . . .

|-------------0--------------------------------------|
|-------------0--------------------------------------|
|----------------------------------------------------|
|---0-22-2-2-----2-0-2----9---7-----9-7-9-10-9-7-----|
|---0-22-2-2-----2-0-2-------------------------------|
|---0-22-2-2-----2-0-2-------------------------------|
    . .. . .     . . .

Gtr 2 -

|-----------------------0----------------------------------------|
|-----------------------0----------------------------------------|
|------------------------------------7--5---------4-5---4-5p4----|
|-12-\\\\-----0-22-2-2------2-0-2---------------3-----5----------|
|-12-\\\\-----0-22-2-2------2-0-2--------------------------------|
|-12-\\\\-----0-22-2-2------2-0-2--------------------------------|
 long slide   . .. . .      . . .

|-------------0--------------------------------------|
|-------------0--------------------------------------|
|-------------------------7---5----5-4-5-7-5-4-------|
|---0-22-2-2-----2-0-2-------------------------------|
|---0-22-2-2-----2-0-2-------------------------------|
|---0-22-2-2-----2-0-2-------------------------------|
    . .. . .     . . .

On the 3rd time play -

Gtr 1 -

|------------0--------------------------------------------------------|
|------------0--------------------------------------------------------|
|---------------------------------------------------------------------|
|--0-22-2-2------2-0-2----9---7h9p7h9p7h9p7h9p7------4-5---4-5p4------|
|--0-22-2-2------2-0-2-----------------------------3-----5------------|
|--0-22-2-2------2-0-2------------------------------------------------|
   . .. . .      . . .


Gtr 2 -

|-----------0---------------------------------------------------|
|-----------0---------------------------------------------------|
|------------------------7--5h7p5h7p5h7p5h7p5----4-5---4-5p4----|
|-0-22-2-2------2-0-2--------------------------3-----5----------|
|-0-22-2-2------2-0-2-------------------------------------------|
|-0-22-2-2------2-0-2-------------------------------------------|
  . .. . .      . . .




----------------------------------------------------------------------------
			     Cries In Vain
----------------------------------------------------------------------------


INTRO

Gtr 1 w/ phaser or wah
|---------------------------------|---------------------------------|
|---------------------------------|---------------------------------|
|---5---4-----------5---4---------|---5---4-----------5---7---4-4-4-|
|-----------5---7-----------5---2-|-----------5---7-----------------|
|-0---0---0---0---0---0---0---0---|-0---0---0---0---0---0---0-------|
|---------------------------------|---------------------------------|
PM.   .   .   .   .   .   .   .     .   .   .   .   .   .   .

Gtr 1
|-----------------0------------------------|        |-----------------0-|
|-----------------6------------------------|        |-----------------0-|
|-----------------5------------------------|        |--------------2--4-|
|-3-3-3-3-3-3--3--3------------------------|        |-2-2-2-2-2-2--2--2-|
|-3-3-3-3-3-3--3--3------------------------|        |-0-0-0-0-0-0--0--0-|
|-3-3-3-3-3-3--3--3------------------------|        |-------------------|
| . . . . . .                                 X2      | . . . . . .                    
             X2
|                                                   |
|Gtr 2                                              |
|------------------------------------------|        |----------------------|
|------------------------------------------|        |----------------------|
|----------------5-4---7-5---4-5---4-5-----|        |5-4---7-5---4-5---4-5-|
|--------------------5-----5-----5---------|        |----5-----5-----5-----|
|------------------------------------------|        |----------------------|
|------------------------------------------|        |----------------------|


|-----------------0------------------------|        |-----------------0----|
|-----------------6------------------------|        |-----------------0----|
|-----------------5------------------------|        |--------------2--4----|
|-3-3-3-3-3-3--3--3------------------------|        |-2-2-2-2-2-2--2--2----|
|-3-3-3-3-3-3--3--3------------------------|        |-0-0-0-0-0-0--0--0----|
|-3-3-3-3-3-3--3--3------------------------|        |----------------------|
| . . . . . .                                       | . . . . . .
|                                                   |
|Gtr 2                                              |
|------------------------------------------|        |----------------------|
|------------------------------------------|        |----------------------|
|----------------5-4---7-5---4-5---4-5-----|        |5-4---7-5---4-5---4-5-|
|--------------------5-----5-----5---------|        |----5-----5-----5-----|
|------------------------------------------| X2     |----------------------|
|------------------------------------------|        |----------------------|
|                                                   |
|                                                   |
|Gtr 3                                              |
|----------------------3-------------------|        |------3---------------|
|----------------5-3-----5---3-5---3-5-----|        |-5-3----5---3-5---3-5-|
|--------------------5-----5-----5---------|        |-----5----5------5----|
|------------------------------------------|        |----------------------|
|------------------------------------------|        |----------------------|
|------------------------------------------|        |----------------------|

|-----------------0----------------------------------|
|-----------------0----------------------------------|
|--------------2--4----------------------------------|
|-2-2-2-2-2-2--2--2----------------------------------|
|-0-0-0-0-0-0--0--0-----\\\\\\\\\\\\\\\\-------------|
|----------------------------------------------------|
| . . . . . .            Pick scrape
|
|                       ~~~~~~~~
|---------------------------------------------|
|---------------------------------------------|
|----------------5-4---5--------(5)\\---------|
|--------------------5------------------------|
|---------------------------------------------|
|---------------------------------------------|
|
|
|                       ~~~~~~~~
|---------------------------------------------|
|----------------5-3---6--------(6)\\---------|
|--------------------5------------------------|
|---------------------------------------------|
|---------------------------------------------|
|---------------------------------------------|


Verse

Guitar 1 and 2.. Guitar 1 Play Higher Harmony
                                                 AH
|-------------------|-----|-------------------|--------------------|
|-------------------|-----|-------------------|--6\\5--------------|
|-2-2-2-2-2-2-2--2--|-----|-2-2-2-2-2-2-2--2--|------7-5/7\\5\\4---|
|-2-2-2-2-2-2-2--2--|-----|-2-2-2-2-2-2-2--2?-|--3\\2-0x-x--x--x----|
|-0-0-0-0-0-0-0--0--|-----|-0-0-0-0-0-0-0--0--|--------3/5\\3\\2---|
|-------------------|-----|-------------------|--------------------|
  . . . . . .               . . . . . .

|-------------------|-----|-------------------|----------------|
|-------------------|-----|-------------------|----------------|
|-2-2-2-2-2-2-2--2--|-----|-2-2-2-2-2-2-2--2--|-2-2------------|
|-2-2-2-2-2-2-2--2--|-----|-2-2-2-2-2-2-2--2--|-2-2------------|
|-0-0-0-0-0-0-0--0--|-----|-0-0-0-0-0-0-0--0--|-0-0------------|
|-------------------|-----|-------------------|----------------|
  . . . . . .               . . . . . .         .


Guitar 2 Play Higher Harmony

               ~~~~~~               ~~~~ AH
|------------|-------|------------|-------------------------|
|------------|-------|------------|-------------------------|
|-------2--5-|-4-----|-------2--5-|-4----2/3\\2-------------|
|-2-2-2-2--7-|-5-----|-2-2-2-2--7-|-5----------3/5\\3\\2----|
|-0-0-0-0----|-------|-0-0-0-0----|-------------------------|
|------------|-------|------------|-------------------------|
  . . .                . . .

               ~~~~~~               ~~~~ AH
|------------|-------|------------|-------------------------|
|------------|-------|------------|-------------------------|
|-------2--5-|-7-----|-------2--5-|-4----2/3\\2-------------|
|-2-2-2-2--7-|-5-----|-2-2-2-2--7-|-5----------3/5\\3\\2----|
|-0-0-0-0----|-------|-0-0-0-0----|-------------------------|
|------------|-------|------------|-------------------------|
  . . .                . . .


CHORUS

Both Guitars
|-----------------0---------------|
|-----------------6---------------|
|-----------------5---------------| X2
|-3-3-3-3-3-3--3--3---------------|
|-3-3-3-3-3-3--3--3---------------|
|-3-3-3-3-3-3--3--3---------------|
  . . . . . .

 Gtr1
|-----------------0---------------|
|-----------------0---------------|
|--------------2--4---------------|
|-2-2-2-2-2-2--2--2---------------|
|-0-0-0-0-0-0--0--0---------------|
|---------------------------------|
| . . . . . .                         X2
|
|Gtr 2
|---------------------------------|
|---------------------------------|
|-5-----4---4-----5-----4---4-----|
|---5-5---5---3-5---5-5---5---3-5-|
|---------------------------------|
|---------------------------------|
    . .   .   . .   . .   .   . .

Both Guitars
|-----------------0---------------|
|-----------------6---------------|
|-----------------5---------------| X2
|-3-3-3-3-3-3--3--3---------------|
|-3-3-3-3-3-3--3--3---------------|
|-3-3-3-3-3-3--3--3---------------|
  . . . . . .

 Gtr 1
|-----------------0---------------|---------------|
|-----------------0---------------|---------------|
|--------------2--4---------------|----------2--2-|
|-2-2-2-2-2-2--2--2-----------2-2-|-2-2-2-2--2--2-|
|-0-0-0-0-0-0--0--0-----------0-0-|-0-0-0-0--0--0-|
|---------------------------------|---------------|
| . . . . . .                 . .   . . . .
|
|Gtr 2
|---------------------------------|---------------|
|---------------------------------|---------------|
|-5-----4---4-----5-----4---4-----|-5-----4---4---|
|---5-5---5---3-5---5-5---5---3-5-|---5-5---5---3-|
|---------------------------------|---------------|
|---------------------------------|---------------|
|   . .   .   . .   . .   .   . .     . .   .
|
|Gtr 3
|---------------------------------|---------------|
|-5-----3---3-----5-----3---3-----|-5-----3---3---|
|---5-5---5---4-5---5-5---5---4-5-|---5-5---5---4-|
|---------------------------------|---------------|
|---------------------------------|---------------|
|---------------------------------|---------------|
    . .   .   . .   . .   .   . .     . .   .

Both Guitars
|-----------------|
|-----------------|
|---------------2-|
|-3-2-0---0-----2-|
|-------3---3-2-0-|
|-----------------|

  Guitar 1 intro w/ phaser or wah

  Verse

  Chorus

Bridge in 3 timing
          4

 Gtr 1
|--------------------------------------------------|
|--------------------------------------------------|
|--------------------------------------------------|
|-7-7-7-7-7-7-7-7-7-7-7-7-7-7-7-7-7-7--7-7-7-7-7-7-| X4
|-0-0-0-0-0-0-8-8-8-8-8-8-101010101010-7-7-7-7-7-7-|
|--------------------------------------------------|
  . . . . . . . . . . . . . . . . . .  . . . . . .

 Gtr 1
|--------------------------------------------------|
|--------------------------------------------------|
|--------------------------------------------------|
|-7-7-7-7-7-7-7-7-7-7-7-7-7-7-7-7-7-7--7-7-7-7-7-7-|
|-0-0-0-0-0-0-8-8-8-8-8-8-101010101010-7-7-7-7-7-7-|
|--------------------------------------------------|
| . . . . . . . . . . . . . . . . . .  . . . . . .
|                                                           X3
|Gtr 2
|--------------------------------------------------|
|--------------------------------------------------|
|-5-5-5-5-5-5-2-2-2-2-2-2-4-4-4-4-4-4--------------|
|-7-7-7-7-7-7-3-3-3-3-3-3-5-5-5-5-5-5--5-5-5-5-5-5-|
|--------------------------------------7-7-7-7-7-7-|
|--------------------------------------------------|
  . . . . . . . . . . . . . . . . . .  . . . . . .

 Gtr 1
|--------------------------------------------------|
|--------------------------------------------------|
|--------------------------------------------------|
|-7-7-7-7-7-7-7-7-7-7-7-7-7-7-7-7-7-7--7-----------|
|-0-0-0-0-0-0-8-8-8-8-8-8-101010101010-7-----------|
|--------------------------------------------------|
| . . . . . . . . . . . . . . . . . .
|
|Gtr 2
|--------------------------------------------------|
|--------------------------------------------------|
|-5-5-5-5-5-5-2-2-2-2-2-2-4-4-4-4-4-4--------------|
|-7-7-7-7-7-7-3-3-3-3-3-3-5-5-5-5-5-5--5-----------|
|--------------------------------------7-----------|
|--------------------------------------------------|
  . . . . . . . . . . . . . . . . . .

|-------------------------------------------------------------|
|-------------------------------------------------------------|
|-------------------------------------------------------------|
|-7------------3------------5----------2----------------------|
|-7------------3------------5----------2----------------------|
|-7------------3------------5----------2----------------------|
|
|                                                                X2
|
|-------------------------------------------------------------|
|-------------------------------------------------------------|
|-----9---9-10-----9---9-10-------9----9-10-10/12-10-9-10-9-7-|
|-7-7---7-----------------------------------------------------|
|--------------8-8---8------10-10---10------------------------|
|-------------------------------------------------------------|

|-------------------------------------------------------------------|
|-------------------------------------------------------------------|
|-----9---9-10-----9---9-10-------9----9-10-12-10h12p10\\9-10-9-7---|
|-7-7---7-----------------------------------------------------------|
|--------------8-8---8------10-10---10------------------------------|
|-------------------------------------------------------------------|
|
|                                                                  X2
|
|-------------------------------------------------------------------|
|------8--8/10-----8---8/10-------8----8/10-------------------------|
|--------------------------------------------9-7-h9-p7\\5--7--5-4---|
|-1010--10-----7-7---7------9--9-----9------------------------------|
|-------------------------------------------------------------------|
|-------------------------------------------------------------------|

Then Both Guitar Pick Scrape

Chorus


Outro

Repeat Gtr 1 intro riff w/ phaser X5

Gtr 2 Enter on second time of intro riff
|-----------------------------|-------------------------------|
|-----------------------------|-------------------------------|
|-2-2--2-2-2--2-2-2--2-2-2--2-|-2-2--2-2-2--2-----------------|
|-2-2--2-2-2--2-2-2--2-2-2--2-|-2-2--2-2-2--2-3-3-3-3-3-3-3-3-|  X4
|-0-0--0-0-0--0-0-0--0-0-0--0-|-0-0--0-0-0--0-3-3-3-3-3-3-3-3-|
|-----------------------------|---------------3-3-3-3-3-3-3-3-|
  . .  . . .  . . .  . . .  .   . .  . . .  . . . . . . . . .
               each time is repeated with less palm mute

Both guitars
              * - Natural Harmonics
|------------------------|     |-----------------|
|-----------5*5*5*5*5*5*-|     |-----------------|
|-2-2--2-2---------------|     |-----------------|
|-2-2--2-2---------------| X3  |-3-3-3-3-3---3---|
|-0-0--0-0---------------|     |-3-3-3-3-3h5-3---|
|------------------------|     |-3-3-3-3-3---3---|


 Gtr 1
|------------------------|     |-----------------|
|-----------5*5*5*5*5*5*-|     |-----------------|
|-2-2--2-2---------------|     |-----------------|
|-2-2--2-2---------------| X3  |-3-3-3-3-3-3-3-3-|
|-0-0--0-0---------------|     |-3-3-3-3-3-3-3-3-|
|------------------------|     |-3-3-3-3-3-3-3-3-|
|                              | . . . . . . . .
|Gtr 2                         |
|------------------------|     |-----------------|
|------------------------|     |-----------------|
|-2-2--2-2--5*5*5*5*5*5*-|     |-----------------|
|-2-2--2-2---------------| X3  |-3-3-3-3-3-3-3-3-|
|-0-0--0-0---------------|     |-3-3-3-3-3-3-3-3-|
|------------------------|     |-3-3-3-3-3-3-3-3-|
                                 . . . . . . . .

|---|
|---|
|-2-|
|-2-|
|-0-|
|---|
Calificar esta versión:
Aviso: Este fichero es trabajo propio de su transcriptor y representa su interpretación personal de la canción. El material contenido en esta página es para exclusivo uso privado, por lo que se prohibe su reproducción o retransmisión, así como su uso para fines comerciales.