Y Tu Que Has Hecho, Buenavista Social Club (tablatura)

Autor: Anónimo | 30050 visualizaciones

INTRO


E—-4-5-4--7-------------0-2-3--4-----------0-------7-4-0-
B---------7--------------------4-------------4-2-0-------
G---------8--------------------5-------------------------
D---------7--------------------4-------------------------
A---------9---1-2-3-4----------6-------------------------
E---------7--------------------4---3-4-5-----------------


E—----0-2-3-4-5-4-2----------------|-4-5-4—-7------------
B--2----------------4-2------------|--------7------------
G-----------------------4-2-4-2-0--|--------8------------
D----------------------------------|--------7------------
A----------------------------------|--------9---1-2-3-4--
E----------------------------------|--------7------------

E-0-2-3---4-----------0--------4-5-7-4-5-2-4--0----------
B---------4-------------4-2-0-----------------0----------
G---------5-----------------------------------1----------
D---------4-----------------------------------2----------
A---------6-----------------------------------2----------
E---------4---3-4-5---------------------------0----------



     E                           B7
En el tronco de un árbol de una niña
          
   A                  B7         E    (R1)
grabó su nombre enchida de placer

C#7                               Fm#
Y el árbol conmovido allá en su seno

B7           A             B7
A la niña una flor dejó caer.



 E                               B7
Yo soy el árbol  conmovido y triste

A             B7                  E   (R1)
tu eres la niña que mi tronco hirió

C#7                               Fm#
yo guardo siempre tu querido nombre

B7      E                  A  B7    E
y tú , que has hecho de mi pobre flor 




R1

E—---9----------7-------4--------------------------------
B------9----------7-----6--------------------------------
G--9-----9----7----7----4--------------------------------
D-----------------------6--------------------------------
A-----------------------4--------------------------------
E-----------------------4--------------------------------

Acordes

       C#7     Fm#     B7  ó  B7                 
E-------4-------2------2-------2------------
B-------6-------2------0-------4----------
G-------4-------2------2-------2----------
D-------6-------4------1-------4---------
A-------4-------4------2-------2----------
E- -----4-------2------0-------2-----------

Fuente original: LaCuerda
Colaborador original: Diego Gil Leyva [dg263@cam.ac.uk]
Calificar esta versión:
Aviso: Este fichero es trabajo propio de su transcriptor y representa su interpretación personal de la canción. El material contenido en esta página es para exclusivo uso privado, por lo que se prohibe su reproducción o retransmisión, así como su uso para fines comerciales.