Si Te Vuelves A Enamorar, Bronco (acordes)

Autor: Anónimo | 50961 visualizaciones

a7dd7e7emg


 E----------------------------------------------------
A---0-2-0---0-2-0---0-2-0--0-2-0--0-2-0-0-2-0---0-2-0
D-0-------0-------0-------0------0-----0------0------
G----------------------------------------------------
B----------------------------------------------------
e----------------------------------------------------


E----------------------------------------------------
A---0-2-0---0-2-0---0-2-0--0-2-0--0-2-0-0-2-0---0-2-0
D-0-------0-------0-------0------0-----0------0------
G----------------------------------------------------
B----------------------------------------------------
e----------------------------------------------------


   D
 Corazon, no seas asi
                       A7
fijate de quien te enamoras
      Em                 A7
date cuenta que una vez mas
     E7         A7          D
un amor has perdido y le lloras

 Es que no te sabes medir
       D7        G
todo de ti, lo entregas
                           D
y el amor que alivio tus heridas
  A7                 D
al final te dejo una mas

 Si te vuelves a enamorar
                           A7
corazon, no quiero verte llorar
             Em           A7
porque tus penas son las mias tambien
  G          A7      D
y no soportaria una mas

 Si te vuelves a enamorar
                            A7
es mejor que sea la ultima vez
        Em              A7
para evitar la equivocacion, corazon
                D   D7 G A7 D
ya sabes que hacer
     D
 Corazon, entiendelo bien
                          A7
que el amor no es como pensabas
           Em              A7
hay quien sabe herir, por herir
        Em   A7       D
y que no da nada por nada
      D
 Tentaciones encontraras
         D7                G
aqui y alla, dondequiera existen
                    D
echa mano de tu experiencia
     A7            D
ten quidado de no caer...
  
NOTA: -] EL REQUINTILLO, LO SAQUE DE EL DISCO DE EN CONCIERTO, SE REPITE CATORCE VECES LO MISMO
         POR TANTO SI USTEDES EL DISCO ORIGINAL, CUANTENLAS Y HAGANMELO SABER



PARA TODOS LOS PERRILLOS GRUPEROS Y RANCHEROS COMO YO, QUE LES PARECE ?????

Fuente original: LaCuerda
Colaborador original: José Arturo Ruiz Santoyo El Temerario Mayor [temerario_mayor@hotmail.com]





Calificar esta versión:
Aviso: Este fichero es trabajo propio de su transcriptor y representa su interpretación personal de la canción. El material contenido en esta página es para exclusivo uso privado, por lo que se prohibe su reproducción o retransmisión, así como su uso para fines comerciales.