I Love Rock N' Roll, Britney Spears (tablatura)

Autor: elsebas_mccartney | 42193 visualizaciones



1-------------------------------------------------------------
2-------------------------------------------------------------
3-------------------------------------------------------------
4--------------2-2--2-2---------------2-2--2-2----------------
5--2-2--2-2----0-0--0-0---2-2--2-2----0-0--0-0---2-2----------
6--0-0--0-0--3----------3-0-0--0-0--3----------3-0-0----------





1--12-10-------------
2-------12-10-8------
3--------------------



La segunda parte es un poco rapida!





Calificar esta versión:
Aviso: Este fichero es trabajo propio de su transcriptor y representa su interpretación personal de la canción. El material contenido en esta página es para exclusivo uso privado, por lo que se prohibe su reproducción o retransmisión, así como su uso para fines comerciales.