En La Fiesta, Brebaje ExtraÑo (acordes)

Autor: BREBAJE | 26828 visualizaciones

abcsosmegsosm
INTRO: E, B, C#m, A, E, B, E [2 VECES]
E               C#m   A 
Desde que la conoci
              E   B  E
mi corazon latio,
            C#m    A 
al verla yo senti
                 B
una extraña sensacion.

C#m                 G#m   A 
Ella entrando a la fiesta
               E   B
ya me miraba a mi,
C#m         G#m  A 
ella tan risueña
                 B
tambien yo le sonrei.

            E
Y ahora no puedo
  A                 E
quitarmela de la cabeza
A                      E
todo el dia pienso en ella
           B
ahora no puedo ni dormir.

          E
Ahora no puedo
  A             E
quitarmela de cabeza
A                 E
niña ya no seas coqueta
         B              A 
mira que me gustas a mi.
          B           E
Ya no me hagas mas sufrir.

E, C#m, A, E, B, E, C#m, A, B, C#m, G#m, A, E, B, C#m, G#m, A, B

-----------------------------------------------------------------
-----5---5-7-9-7-7-7-9-10-10-9-----5---5-7-9---------------------
-4-6---6-----------------------4-6---6-------9-9-9-9-11----------
--------------------------------------------------------11-9-----
-----------------------------------------------------------------
-----------------------------------------------------------------

-9-9-9-7-9-7-------------------9-9-9-7-9-7-----------------------
-------------9-7-7-7-9-10-10-9-------------9---------------------
---------------------------------------------9-9-9-9-11----------
--------------------------------------------------------11-9-----
-----------------------------------------------------------------
-----------------------------------------------------------------
E                C#m  A 
Yo la invite a bailar
           E      B
me dijo yo no se,
E               C#m   A 
le comence a enseñar
                  B
creo que le caigo bien.

C#m                G#m
Mientras yo le indicaba
A               E    B
la forma de bailar,
C#m               G#m  A 
mientras yo la miraba
                    B
ya no lo pude yo ocultar.

            E
Y ahora no puedo...
Calificar esta versión:
Aviso: Este fichero es trabajo propio de su transcriptor y representa su interpretación personal de la canción. El material contenido en esta página es para exclusivo uso privado, por lo que se prohibe su reproducción o retransmisión, así como su uso para fines comerciales.