Vete Al Averno, Botellita De Jerez (tablatura)

Autor: Anónimo | 27712 visualizaciones

Intro :

    B5    G5    E5   C#5 
e -----------------------------------||
B -----------------------------------||
G -----------------------------------||
D -4-4-4-------7-7-7-6-6-6-6-6-6-----||
A -2-2-2-5-5-5-5-5-5-4-4-4-4-4-4-----||
E -------3-3-3-----------------------||
              ( X4 )

Verso :

    B5      G5      B5      G5
e ----------------------------------||
B ----------------------------------||
G ----------------------------------||
D -4-4-4-4---------4-4-4-4----------||
A -2-2-2-2-5-5-5-5-2-2-2-2-5-5-5-5--||
E ---------3-3-3-3---------3-3-3-3--||

Cambio :
 
   A5  E5  A5    G5  A5    B5  G5  D5  C#5
e -----------------------|-------------------||
B -----------------------|-------------------||
G -----------------------|-------------------||
D -----9-9-7-7-----------|-4-4-----7-7-6-6---||
A -7-7-7-7-5-5-5-5-5-7-7-|-2-2-5-5-5-5-4-4---||
E -5-5-----------3-3-5-5-|-----3-3-----------||

2do Cambio
   
   B5    D5    E5     G5
e ---------------------------||
B ---------------------------||
G ---------------------------||
D -4-4-4-7-7-7-9-9-9---------||
A -2-2-2-5-5-5-7-7-7-5-5-5---||
E -------------------3-3-3---||

         ( X2 )

Coro :

     B5      G5    B5        G5
e -----------------------------------||
B -----------------------------------||
G -----------------------------------||
D -4-4-4-4---------4-4-4-4-----------||
A -2-2-2-2-5-5-5-5-2-2-2-2-5-5-5-5---||
E ---------3-3-3-3---------3-3-3-3---||

Todo se repite segun los tiempos , esta muy papa ,
y tambien hay partes donde usas palm mute 

AGRADECIMIENTOS , SALUDOS , CORRECCIONES Y MENTADAS 
ESCRIBANME
GRACIAS

Fuente original: LaCuerda
Colaborador original: Luis Alanis [luisdel14@yahoo.com.mx]
Calificar esta versión:
Aviso: Este fichero es trabajo propio de su transcriptor y representa su interpretación personal de la canción. El material contenido en esta página es para exclusivo uso privado, por lo que se prohibe su reproducción o retransmisión, así como su uso para fines comerciales.