Oh Dennis, Botellita De Jerez (bajo)

Autor: Anónimo | 30058 visualizaciones

Intro :

g ------------------|----------------|----------------|
d -----2-4-5-4-2----|-----2-4-5-2----|-----2-4-5-2----|
a -0-4-----------4--|-0-4---------4--|-0-4---------4--|
e ------------------|----------------|----------------|

g ---------------|-----2-4-5-2---|---------------|
d -----2-4-5-2---|-0-4---------4-|-----2-4-5-2---| 
a -0-4---------2-|---------------|-0-4---------4-|
e ---------------|---------------|---------------|

g -------6-------4 |-----------------||
d ---6-9-----4-7---|-----2-4-5-2-----||
a -7-------5-------|-0-4---------4---||
e -----------------|-----------------||

Verso :

g --------------|------------------|-----2-4-5-2-----|
d ----2-4-5-2---|-----2-4-5-2------|-0-4---------4---|
a -0-4-------4--|-0-4----------4---|-----------------|
e --------------|------------------|-----------------|

g ---------------|--------|---------------|----------
d -----2-4-5-4---|--------|-----2-4-5-4---|-----2-4-5
a -0-4---------2-|-7---5--|-0-4---------2-|-0-4------
e ---------------|--------|---------------|----------

g ---------------||
d -7-5---5-------||
a -----7---------||
e ---------------||

Cambio :

g ----------------------------------------------------
d -0-0-0-0-0-----------0-0-0-0-0------------2-2-2-2-2-
a -----------0-0-0-0-0-----------0-0-0-0-0------------ 
e ----------------------------------------------------

g -----------||
d -0-0-0-0-0-||
a -----------||
e -----------||

Requinto :

( en todo el requinto , acompaña con lo del verso .
  pero luego hay unos cambios , que aqui los pongo )

g -----------------|-----------------|-------5-7-5-----
d -------5-7-5-----|-------5-7-5-----|---5-8-------8-5-
a ---5-8-------8-5-|---5-8-------8-5-|-6---------------
e -6---------------|-6---------------|-----------------

g -----------------|-------||||-----------------|
d -------5-7-5-----|-------||||-------6-8-6-----|
a ---5-8-------8-5-|-8-6-6-||||---6-9-------9-6-|
e -6---------------|-------||||-7---------------|

g -----------------|-------6-8-6------|-------||||
d -------6-8-6-----|---6-9-------9-6--|-------||||
a ---6-9-------9-6-|-7----------------|-9-7-7-||||
e -7---------------|------------------|-------||||


( despues de esos cambios , se acompaña , con la 
  ultima figura , y se acaba la rola )

Es un rocanrollito , muy chido , asi como para bailar
esta papita , hay lo sacan y suerte

Agradecimientos , saludos , mentadas de madre , y 
anexas , hay me escriben

Fuente original: LaCuerda
Colaborador original: Luis Alanis [luisdel14@yahoo.com.mx]
Calificar esta versión:
Aviso: Este fichero es trabajo propio de su transcriptor y representa su interpretación personal de la canción. El material contenido en esta página es para exclusivo uso privado, por lo que se prohibe su reproducción o retransmisión, así como su uso para fines comerciales.