Guacarrock De La Malinche, Botellita De Jerez (tablatura)

Autor: Anónimo | 15786 visualizaciones

ROLITA DE BOTELLITA DE JEREZ
EXCELENTE DEL UNICO GRUPO CREATIVO MINIMALISTA DE MÉXICO
CON GUITARRA A 440 Hz

INTRODUCCIÓN PRIMERA PARTE

E ----------------------------------------------------------------
B ----------------------------------------------------------------
G -------------------------------------0--------------------------
D ----------------------0-----0--1--3-----3--1--0--1--0-----------
A -------0--1--0--1--3-----3-----------------------------3--1—1--1
E -1--3-----------------------------------------------------------

INTRODUCCIÓN SEGUNDA PARTE

E -----------------------------------------------------------------------
B -----------------------------------------------------------------------
G -----------------------------------------------------------------------
D -1-0-------------------------------------1-----------------------------
A -----1-1-1---1-0--------1-0--------1-1-1---0--1-1-1--1-0—--1-0---------
E -----------------1-1-1------1-1-1------------------------1-----1--1-2-3

INTRODUCCIÓN TERCERA PARTE

G Bb? (2)

VERSO 1
G                              Bb?
Chulada de Maíz Prieto, cuanta pena a mi me da
	  G               Bb?        G          Bb?
Que te apena ser morena, triste güera oxigenada
        G             Bb?       G            Bb
Dizque rubia superior, me re-lleva la tostada
       C                       Bb?  F       G     RIFF 1
Ya cambiaste el molcajete por licuadora de broches

RIFF 1

E ---------------------
B ---------------------
G ---------------------
D ---------------------
A -5--3----------------
E -------6--3----------

CORO
G                    C              Bb?      F
Pinche malinche, lo cortés no quita lo Cuauhtémoc
      G                  C               Bb?
Mira pinche malinche, lo cortes no quita lo Cuauhtémoc


VERSO 2 (EN LOS MISMOS TIEMPOS DE VERSO 1, ESCUCHA LA ROLA Y ES MAS FACIL)
Yo soy de aquí no soy de allá, tu ni de aca ni de allá 
Ni pichas ni cachas ni dejas batear te caerá la maldición
Del buen Dios Tezcatlipunk
Aunque la mona se pinte de guera , mona se queda

Pinche malinche...


G                Bb?
Ay, ay , ay , ay....

Pinche Malinche...

REQUINTO

(IGUAL QUE EL AY, AY, AY)
Uh, ah, (3)


VERSO 3 (SOBRA DECIR QUE IGUAL QUE EL 1 Y EL 2)

Con mi cara de Nahuatl, de Nopal sin rasurar
Nariz de chile relleno, estoy orgulloso que conste
Yo soy la raza de bronce
Si lo mexicano es naco y lo mexicano es chido
Entonces verdad de Dios, todo lo naco es chido

Pinche malinche...

¡ Mira Pinche ¡

ACORDES
TODOS CON CEJILLA NORMALITOS...NO ABIERTOS...
EL UNICO NO TAN NORMALITO ES
Bb?: X35550

Y NO SE COMO SE LLAMA.......DISFRÚTENLA

ATTE: SALVADOR APARICIO GOMEZ
salvadoraparicio@hotmail.com

Si alguien tiene la tab del Herraje de Armando Rosas y la Camerata Rupestre, se la encargo.

Fuente original: LaCuerda
Colaborador original: Salvador Aparicio Gómez [salvadoraparicio@hotmail.com]
Calificar esta versión:
Aviso: Este fichero es trabajo propio de su transcriptor y representa su interpretación personal de la canción. El material contenido en esta página es para exclusivo uso privado, por lo que se prohibe su reproducción o retransmisión, así como su uso para fines comerciales.