Love Letter, Bonnie Raitt (bajo)

Autor: Molotov | 17284 visualizaciones

Ola banda blusera, esta es de Bonnie Raitt, veo q no la tienen en la pag asi q les dejo este bajo q 
esta muy chido recuerden q es slap mas q nada ok?


Canción: Love Letter
Artista: Bonnie Raitt
Autor: Bonnie Raitt 
Armonizada en: E
Instrumento: Epiphone Thunderbird-IV

Intro:
G--------------------4---------------------I
D*----------2----2?0----------------------*I
A*--------2--------------X-2h0------------*I
E----0-3-------3---------------3h0-3h0-0---I
Sittin' in front of your house,
Light rain in early dawn
Workin' on a Love Letter
Got my radio on.

Got my eye on your window pane
and I smoked a lot of cigarettes.
Mercy, Mercy but love is strange
and you haven't even kissed me yet.

G---------------------------
D---------------------------
A---------------------------
E---3----3h5----3h5----3----
We come to push,
push comes to shove,
shove comes to touch,
touch will come to love

G--------------------4---------------------I
D*----------2----2?0----------------------*I
A*--------2--------------X-2h0------------*I
E----0-3-------3---------------3h0-3h0-0---I
Workin' on a Love Letter,
Listenin' to a love song,
I'm writing you a love
letter, love letter,
got my radio on...radio, radio

Hope you get the message baby.
I know that you're gonna let me in.
It's weird in your neighborhood
if this is a war then I'm gonna win
---Coro----X2 ---Solo De Guitar----

Comentarios del colaborador: Esta es para mi niña Diana Laura

Calificar esta versión:
Aviso: Este fichero es trabajo propio de su transcriptor y representa su interpretación personal de la canción. El material contenido en esta página es para exclusivo uso privado, por lo que se prohibe su reproducción o retransmisión, así como su uso para fines comerciales.