(you Want To) Make A Memory, Bon Jovi (tablatura)

Autor: amnxcdt7 | 40028 visualizaciones



Mi Tab x(amnx)

e.|--------------------------|
B.|--------------------------|
G.|--------------------------|
D.|---5-5-5-5-5-5-5-5--------|
A.|---3-3-3-3-3-3-3-3--------|
E.|--------------------------|

e.|--------------------------|
B.|--------------------------|
G.|--------------------------|
D.|---5-5-5-5-5-5-5-5--------|
A.|---2-2-2-2-2-2-2-2--------|
E.|--------------------------|

e.|--------------------------|
B.|--------------------------|
G.|--------------------------|
D.|---9-9-9-9-9-9-9-9--------|
A.|---7-7-7-7-7-7-7-7--------|
E.|--------------------------|

e.|--------------------------|
B.|--------------------------|
G.|--------------------------|
D.|--10-10-10-10-10-10-10-10-| 10 con el 8 se tocan juntas al 
A.|--8--8--8--8--8--8--8--8--| igual que las anteriores.solo que 
E.|--------------------------| el 10 quedo un poko corrido


     un pequeño solo
   
e.|---8-7-8-8----------------|
B.|--------------------------|
G.|--------------------------|
D.|--------------------------|
A.|--------------------------|
E.|--------------------------|





Comentarios del colaborador: avisenme si tiene errores para corregirlos

Calificar esta versión:
Aviso: Este fichero es trabajo propio de su transcriptor y representa su interpretación personal de la canción. El material contenido en esta página es para exclusivo uso privado, por lo que se prohibe su reproducción o retransmisión, así como su uso para fines comerciales.