Tierra Quemada, Boikot (tablatura)

Autor: miguelnvl | 25093 visualizaciones



esta creo que esta un poco mejor


e------------4-6-6--------------------------------
b------------4-8-6--------------------------------
g------------5-8-7--------------------------------X 5
d----5-5-5-5-6-8-8--------------------------------
a---6-6-6-6--6-6-8--------------------------------
e--8-7-6-4---4-x-6--------------------------------

Sobre
Ganas de llorar aqui todo es igual
mil gueras he perdido ya
me pueden reventar
y me vuelvo a levantar
tristes caras se cruzan en prision
nadie tiene piedad
                A5  Con distorcion
con el perdedor

C5-G#-G
C5-D#-G#-A5
sigue lo mismo pero con palm mute

Las cadenas son muy fuertes
pero puedo soportar
me han condenado a muerte
por buscar tu libertad
puede que no vuelva a ver      (Ya no sigue con pal mute)
bien de frente morire

E-----------------------------------------------------
B-----------------------------------------------------
G-555-777-88-10-10-888-777-555-777-88-1010-888---------
D----------------------------------------------8888888--
A-333-555-66-8--8--666-555-333-555-66-8--8-666-8888888---
E----------------------------------------------6666666---

sobre

Odio y muerte
esto es lo que han sembrado
guerra y odio
es que hoy por ti voy a luchar

G#
un comando
A#         F-G-G#
organizado
G                               F-G-G#  A#
armado de ideas cargadas de revolucion

D-35----
A---6----

C-G#-G
C-D#-G#-A#

sigue haciendo lo mismo que al principio

Yo solo veo tierra quemada en la tierra del señor
han construido las iglesias del miedo y el rencor

Odio y muerte
Esto es lo que han sembrado
Guerra y odio
y es que hoy por ti voy a luchar

Un comando.....

punteo

E----------8-10-11-10--78---------
B-8-8-89-8-6-8-8-8---89--9898-----

Sobre
C-G#-A#
C-D#-G#

Yo solo veo tierra quemada en la tierra del señor
han contruido las iglesias del miedo y el rencor
el vino esta podrido en la viña del señor
y los ciervos se revelaron contra el opresor

E-343-134-346 A#

Un comando....

despues va con un punteito que es

B-5-78-5-5-7-4-57-5-5-2 X2





Comentarios del colaborador: la cuerda

Calificar esta versión:
Aviso: Este fichero es trabajo propio de su transcriptor y representa su interpretación personal de la canción. El material contenido en esta página es para exclusivo uso privado, por lo que se prohibe su reproducción o retransmisión, así como su uso para fines comerciales.