El Muro De Berlín, Boikot (tablatura)

Autor: Anónimo | 30925 visualizaciones



INTRO:


1ª GUITARRA:

|-9-9-9-9-7-8-9-|
|-9-9-9-9-7-8-9-|
|---------------|
|---------------|
|---------------|


2ª GUITARRA:

|-12-9-------|
|------10-9--|
|------------|
|------------|
|------------|
|------------|

|-12-11-9-8-9-8-11-12-|
|---------------------|
|---------------------|
|---------------------|  x2
|---------------------|
|---------------------|

|-9-4-5-7-|
|-9-4-5-7-|
|---------|
|---------|
|---------|
|---------|

|-----------------|
|-----------------|
|-----------------|
|-7-6-5-4-5-4-6-7-|
|-----------------|
|-----------------|

|-9-4-5-7-|
|-9-4-5-7-|
|---------|
|---------|
|---------|
|---------|

|-----------------|
|-----------------|
|-----------------|
|-7-6-5-4-5-4-6-7-|
|-----------------|




Solo:

|------------------------------------->-
|------------------------------------->-
|------------------------------------->-
|-14-13-11-10-11-10-13-14-14-16-18-21->-
|------------------------------------->-


->---------------------------------------------------------|
->----14-14-14-16-17-16-17-14-16-16-16-16-17-19-17-19-16-17|
->-18------------------------------------------------------|
->---------------------------------------------------------|
->---------------------------------------------------------|
->---------------------------------------------------------|


|-----------------------------------------------|
|--------14-12-14-10-12-10-9-10-7-9-5-4-4-5-4-2-|
|-9-11-13---------------------------------------|
|-----------------------------------------------|
|-----------------------------------------------|
|-----------------------------------------------|

|----------------|
|----------------|
|----------------|
|-6-8-9-11-13-14-|
|----------------|
|----------------|





Calificar esta versión:
Aviso: Este fichero es trabajo propio de su transcriptor y representa su interpretación personal de la canción. El material contenido en esta página es para exclusivo uso privado, por lo que se prohibe su reproducción o retransmisión, así como su uso para fines comerciales.