Ritmo En Bajo, Blues (bajo)

Autor: acdcserrate | 45140 visualizaciones



/-----------------------------------------------------------
/-----------------------------------------------------------
/--------------------------------55--55--55--55--55---------
/--5--55--55--55--55--55--55--55----------------------------

/-----------------------------------------------------------
/-----------------------------------------------------------
/-----------------7-77-77-77--55--55--55--------------------
/--55--55--55--55------------------------5-55-55-55





Calificar esta versión:
Aviso: Este fichero es trabajo propio de su transcriptor y representa su interpretación personal de la canción. El material contenido en esta página es para exclusivo uso privado, por lo que se prohibe su reproducción o retransmisión, así como su uso para fines comerciales.