Blues (base Intermedia), Blues (tablatura)

Autor: rafakpo | 21614 visualizaciones



Base intermedia de blues
~~~~ ~~~~~~~~~~ ~~ ~~~~~

e---------------------
B---------------------
G---------------------
D----------5--5-5-4--- X1
A-------4-7--------7--
E-5--5-5--------------

e-------------------------
B-------------------------
G-----------5--5-5-4------  X1
D--------4-7--------7-----
A-5--5-5------------------
E-------------------------

e-------------------------------------------------------------
B-------------------------------------------------------------
G--------------------------------------------------5--5-5-4---
D----------5--5-5-4-----------------------------4-7---------7- X1
A-------4-7--------7-----2--2-3--3-4--4--5--5-5---------------
E-5--5-5-------------5--5-------------------------------------

e---------------------
B---------------------
G----------5--5-5-4---
D-------4-7--------7--     X1
A-5--5-5--------------
E---------------------

e-------------------------
B-------------------------
G-------------------------  X2
D----------5--5-5-4-------
A-------4-7--------7------
E-5--5-5------------------

e----------------------------------------
B----------------------------------------
G----------7--7-7-6------------5--5-5-4--
D-------6-9-----------------4-7--------7- X1
A-7--7-7-----------7--5--5-5-------------
E----------------------------------------

e-------------------------
B-------------------------
G-------------------------
D----------5--5-5-4-------   X2
A-------4-7--------7------
E-5--5-5-------------5!---

DEDICADO A MI INCREIBLE PROFESOR DE MUSICA GERARDO GALLO!!





Calificar esta versión:
Aviso: Este fichero es trabajo propio de su transcriptor y representa su interpretación personal de la canción. El material contenido en esta página es para exclusivo uso privado, por lo que se prohibe su reproducción o retransmisión, así como su uso para fines comerciales.