Bases De Blus, Blues (tablatura)

Autor: el puma gris 050 | 33948 visualizaciones



Bueno acá tiene 3 bases!!Con estas pueden sacar la mayoría de las otras... Suerte!!

           BASE EN SOL
e ------------------------------------|
B ------------------------------------|
G ------------------------------------|
D -------2-3-2-----------2-3-2--------|
A ---2-5-------5-2---2-5-------5-2----|
E -3---------------3---------------3--|

        BASE EN DO

e ------------------------------------|
B ------------------------------------|
G -------2-3-2-----------2-3-2--------|
D ---2-5-------5-2---2-5-------5-2----|
A -3---------------3---------------3--|
E ------------------------------------|


        BASE EN RE
e ------------------------------------|
B ------------------------------------|
G -------4-5-4-----------4-5-4--------|
D ---4-7-------7-4---4-7-------7-4----|
A -5---------------5---------------5--|
E ------------------------------------|

Es la misma manera de tocar solo que sobre diferentes notas!!
Si quieren combinar las bases les recomiendo esta manera:

e ----------------------------------------------------|
B ----------------------------------------------------|
G -----------------------2-3-2-----------4-5-4--------|
D -------2-3-2-------2-5-------5-2---4-7-------7-4----|
A ---2-5-------5-2-3---------------5---------------5--|
E -3--------------------------------------------------|

Espero que les guste!!





Calificar esta versión:
Aviso: Este fichero es trabajo propio de su transcriptor y representa su interpretación personal de la canción. El material contenido en esta página es para exclusivo uso privado, por lo que se prohibe su reproducción o retransmisión, así como su uso para fines comerciales.