Base De Blues, Blues (tablatura)

Autor: XDgonzaXD | 22410 visualizaciones



|-------------|--------------|
|-------------|--------------|
|-------------|--------------|
|-------------|--------------|
|---7--7-9----|---7--7--7-9--|
|---5--5-5----|---5--5--5-5--| la segunda en total tres veces
 
|--------------|
|--------------|
|--------------|
|---7--7--7-9--|
|---5--5--5-5--|
|--------------| X4


|-------------|--------------|
|-------------|--------------|
|-------------|--------------|
|-------------|--------------|
|---7--7-9----|---7--7--7-9--|
|---5--5-5----|---5--5--5-5--| la segunda en total tres veces

|--------------|
|--------------|
|--------------|
|---9--9--9-11-|
|---7--7--7-7--|
|--------------|  X2

|--------------|
|--------------|
|--------------|
|---7--7--7-9--|
|---5--5--5-5--|
|--------------| X2

hasta ahi despues se repite todo, tambien se puede hacer con la prier quinta en el 3 traste, seria toda la cancion dos trastes mas atras

espero le haya gustado y les sirva

dejen coments





Calificar esta versión:
Aviso: Este fichero es trabajo propio de su transcriptor y representa su interpretación personal de la canción. El material contenido en esta página es para exclusivo uso privado, por lo que se prohibe su reproducción o retransmisión, así como su uso para fines comerciales.