Base Con Bajo, Blues (bajo)

Autor: elsego | 22885 visualizaciones



5/-----2-4-5-4-2----/  x2
6/-0-4-----------4--/


4/-----2-4-5-4-2-----/ 
5/-0-4-----------4---/


5/-----2-4-5-4-2-----/
6/-0-4-----------4---/


4/-------------------------------------------4-5-6--/
5/-3/7-7-(7)-----3/5-5-(5)-----4-4-5-5-6-6-7--------/
6/-------------------------5-5----------------------/





Comentarios del colaborador: yo toco la bateria,guitarra ,guitarra electrica,bajo,flauta,violin,y teclado

Calificar esta versión:
Aviso: Este fichero es trabajo propio de su transcriptor y representa su interpretación personal de la canción. El material contenido en esta página es para exclusivo uso privado, por lo que se prohibe su reproducción o retransmisión, así como su uso para fines comerciales.