Base, Blues (tablatura)

Autor: elsego | 40807 visualizaciones



2/--------------------/
3/--------------------/ x4
4/---------------7--5-/
5/--7-7-7-7-7-7--5--3-/
6/--5-5-5-5-5-5-------/


2/--------------------/
3/---------------7--5-/ x2
4/--7-7-7-7-7-7--5--3-/
5/--5-5-5-5-5-5-------/
6/--------------------/


2/--------------------/
3/--------------------/ x2
4/---------------7--5-/
5/--7-7-7-7-7-7--5--3-/
6/--5-5-5-5-5-5-------/


3/------------------------------------/
4/--9-9-9-9-9-9-9-9---7-7-7-7-7-7-7-7-/
5/--7-7-7-7-7-7-7-7---5-5-5-5-5-5-5-5-/


4/---------------------(5)--/
5/-----4-4--5-5--6-6-7----7-/
6/-5-5----------------------/





Comentarios del colaborador: espero que les guste

Calificar esta versión:
Aviso: Este fichero es trabajo propio de su transcriptor y representa su interpretación personal de la canción. El material contenido en esta página es para exclusivo uso privado, por lo que se prohibe su reproducción o retransmisión, así como su uso para fines comerciales.