I Wish I Was Someone, Blood Red Shoes (tablatura)

Autor: alexisrock | 14895 visualizaciones

A-2-2-2-2-2-2-2-2-5-5-5-2-2-2-2-2-1-1-1-1-1-1-1----------------
E-----------------------------------------------3-3-3-3-3-3--3-

  B5              D5    B5        A#5           G5
G-4-4-4-4-4-4-4-4-7-7-7-4-4-4-4-4-3-3-3-3-3-3-3---------------
D-4-4-4-4-4-4-4-4-7-7-7-4-4-4-4-4-3-3-3-3-3-3-3-5-5-5-5-5-5-5-
A-2-2-2-2-2-2-2-2-5-5-5-2-2-2-2-2-1-1-1-1-1-1-1-5-5-5-5-5-5-5-
E-----------------------------------------------3-3-3-3-3-3-3-

E-7-7-7-7/10-10-10-10\5-5-5-5--5-3-0-0-3-0-5-0-

E-7-7-7-7/10-10-10-10\5-5-5-5\3-3-3-3/7

  
G----9------9--------------------
D-9--9-8-9--9-8-5--5-5--4-7-7--9-
A-9--7-8-9--7-8-5--5-5--4-7-7--9-
E-7----6-7----6-3--3-3--2-5-5--7-

Comentarios del colaborador: espero q les guste

Calificar esta versión:
Aviso: Este fichero es trabajo propio de su transcriptor y representa su interpretación personal de la canción. El material contenido en esta página es para exclusivo uso privado, por lo que se prohibe su reproducción o retransmisión, así como su uso para fines comerciales.