Carolyn, Black Veil Brides (tablatura)

Autor: anhendrix | 20916 visualizaciones

Intro (Acústica)
|---------0-------------0------------0------------------------|
|-----0----0-0------0----0-0------0---0-0---------------------|
|----0-0----0-0----0-0----0-0----0-0---0-0------0--0---0---0--|
|---5---5------0--7---0------0--9---0-----0--10--9---4---7----|
|--3-------------5-------------7------------8---7---2---5-----|
|-------------------------------------------------------------| 

4veces

Guitarra(Eléctrica)
|---------------------------------------------------------------|
|--1/6--8---7--5---5---------8---10---7--8--7--5--7---8--7--5---|
|--------------------7-5-4--------------------------------------|
|---------------------------------------------------------------|
|---------------------------------------------------------------|
|---------------------------------------------------------------|

|---8-----7-----5---------------------------------------------|
|--------------------8----------------------------------------|
|-------------------------------------------------------------|
|-------------------------------------------------------------|
|-------------------------------------------------------------|
|-------------------------------------------------------------|

Comentarios del colaborador: Mi primera tab espero que les guste Gracias

Calificar esta versión:
Aviso: Este fichero es trabajo propio de su transcriptor y representa su interpretación personal de la canción. El material contenido en esta página es para exclusivo uso privado, por lo que se prohibe su reproducción o retransmisión, así como su uso para fines comerciales.