She Is Gone, Black Sabbath (tablatura)

Autor: nirvanarua | 38840 visualizaciones



|--------0--------0--------0--------0-------0-------0-------0-------0-
|------0---0-------------0---0------------0---0-----------0---0-------
|---------------------------------------8-------8-------8-------8-----
|-9-------------9---9-------------9---9-----------9---9-----------9---
|---10-------10-------10-------10-------------------------------------
|---------------------------------------------------------------------



|---------0---------0---------0---------0---------0---------0---------0---------0-
|-------0---0---------------0---0---------------0---0---------------0---0---------
|----11-------11---------11-------11---------12-------12---------12-------12------
|-12-------------12---12-------------12---11-------------11---11-------------11---
|---------------------------------------------------------------------------------
|---------------------------------------------------------------------------------


|--------0--------0-------0-------0-------0-------0-------0-------0-
|------0---0------------0---0-----------0---0-----------0---0-------
|----9-------9--------9-------9-------8-------8-------8-------8-----
|-10-----------10---8-----------8---9-----------9---9-----------9---
|-------------------------------------------------------------------
|-------------------------------------------------------------------



|-------0-------0-------0-------0-------2-------2-------2-------2-
|-----0---0-----------0---0-----------0---0-----------0---0-------
|---4-------4-------4-------4-------4-------4-------4-------4-----
|-2-----------2---2-----------2---0-----------0---0-----------0---
|-----------------------------------------------------------------
|-----------------------------------------------------------------


|-------5-----7---------5-----7---------5-----7---------5-----7----
|-----5---5-----5-----5---5-----5-----5---5-----5-----5---5-----5--
|---5-------5-------5-------5-------5-------5-------5-------5------
|-7---------------6---------------5---------------4----------------
|------------------------------------------------------------------
|------------------------------------------------------------------


|-------0-------0-------0-------0-------0-------0-------0-------0--
|-----0---0-----------0---0-----------0---0-----------0---0--------
|---4-------4-------6-------6-------8-------8-------8-------8------
|-5-----------5---7-----------7---9-----------9---9-----------9----
|------------------------------------------------------------------
|------------------------------------------------------------------





Calificar esta versión:
Aviso: Este fichero es trabajo propio de su transcriptor y representa su interpretación personal de la canción. El material contenido en esta página es para exclusivo uso privado, por lo que se prohibe su reproducción o retransmisión, así como su uso para fines comerciales.