God Is Dead?, Black Sabbath (tablatura)

Autor: GokuSSJ2 | 28860 visualizaciones



Hola,disculpen si no es la correcta,la saque a oído



Primer Riff:
 
4)-----8------------7-----|
5)--6-----(9)----6-----(9)|  (Repetir hasta llegar al coro?
6)------------------------|

Segundo Riff:

4)--6-8-----6-8-----10-11--|
5)--4-6-----4-6-----8--9---|

God is Dead?!
Riff Coro:

5)-----------6-5-4-------------------|  
6)--(0)----0-------6-(5)------0-5-(6)|

5)-----------6-5-4-------------------|  (Repetir durante el coro)
6)--(0)----0-------6-(5)------0-5-(4)|


Solo la pude sacar hasta ahi XDDD 
Gracias por ver esta Tablatura,puntúa si te gustó :P





Calificar esta versión:
Aviso: Este fichero es trabajo propio de su transcriptor y representa su interpretación personal de la canción. El material contenido en esta página es para exclusivo uso privado, por lo que se prohibe su reproducción o retransmisión, así como su uso para fines comerciales.