Surrender, Billy Talent (tablatura)

Autor: anguslash | 25068 visualizaciones

e|-----7-----7---------8-----8-----------12-------12------------10-----------|
B|-----0-----0-----------------------------------------------------------9---|
G|---5-----5---5-----0-----0---0------10-------10----10-------9----9---7---7-| x2
D|-7-----7-------7-5-----5-------5-12-------12----------12-10--------9-------|
A|---------------------------------------------------------------------------|
D|---------------------------------------------------------------------------|

Verse:
e|---------------------|
B|---------------------|
G|-5---4---10---9---7--|  x2
D|-7---5---12---10--9--|
A|---------------------|
D|---------------------|

e|-----------------------------------------------------------------------------|
B|-----------------------------------------------------------------------------|
G|-5---------------4---------------10--------------------9-------------7-------| x2
D|-7--7-7-7-7-7-7--5--5-5-5-5-5-5--12--12-12-12-12-12-12-10--10-10-10--9--9-9-9|
A|-----------------------------------------------------------------------------|
D|-----------------------------------------------------------------------------|

Calificar esta versión:
Aviso: Este fichero es trabajo propio de su transcriptor y representa su interpretación personal de la canción. El material contenido en esta página es para exclusivo uso privado, por lo que se prohibe su reproducción o retransmisión, así como su uso para fines comerciales.