Vestida De Azul, Belanova (tablatura)

Autor: jcc666 | 17592 visualizaciones



Hola a todos, aquí esta Vestida de azul de Belanova.

Nota - Los (••••) después de una nota en el tab significa que sigue sonando.

     - Los acordes que están entre [ ] solo se rasguean una vez.


Acordes :

        E A D G B e       E A D G B e
D    =  X 5 7 7 7 5   o   X X 0 2 3 2
G    =  3 5 5 4 3 3   o   3 2 0 0 3 3
C    =  X 3 5 5 5 3   o   0 3 2 0 1 0
A    =  5 7 7 6 5 5   o   X 0 2 2 2 0


Intro :

e --------14-15-14-----------------15--14--15---------------
B -15·····---------15----1515··15---------------------------
G --------------------14-----------------------14-12-11-----
D ----------------------------------------------------------
A ----------------------------------------------------------
E ----------------------------------------------------------

e ------------------------------------------
B -15---------------------------------------
G -----12-11----12-11-----9-9-11------------
D -----------12-------12---------12~~~~~~---
A ------------------------------------------
E ------------------------------------------


Verso 1 :

D              G
Si te veo de frente
C               D
Yo me elevo al cielo
D              G           C
En mis sueños yo puedo viajar
    D
Ah, ah, ah, ah

D           G
Cerraré los ojos bien
C            D
Pediré un deseo
D              G         C
Y al abrirlos será realidad


Precoro :

   [G]        [C]
Si tú estás aquí


Coro :

D      G         C
Sólo quiero caminar
     G             D
Por la orilla del mar
    G        C
Vestida de azul
     A
Quiero que sepas


D      G         C
Sólo quiero caminar
     G             D
Por la orilla del mar
    G        C
Vestida de azul
       A            Intro
Y quiero que estés tú

e --------14-15-14-----------------15--14--15---------------
B -15·····---------15----1515··15---------------------------
G --------------------14-----------------------14-12-11-----
D ----------------------------------------------------------
A ----------------------------------------------------------
E ----------------------------------------------------------
                                               Sólo tú
e ------------------------------------------
B -15---------------------------------------
G -----12-11----12-11-----9-9-11------------
D -----------12-------12---------12~~~~~~---
A ------------------------------------------
E ------------------------------------------
 

Verso 2 :

D             G
Si te siento cerca
C            D
Toco las estrellas
D            G          C
En tus ojos puedo respirar
    D
Ah, ah, ah, ah

D             G
Por la noche dormiré
C                D
Te veré en mis sueños
D              G        C
Y despierta serán realidad


Precoro :

   [G]        [C]
Si tú estás aquí

Coro :

D      G         C
Sólo quiero caminar
     G             D
Por la orilla del mar
    G        C
Vestida de azul
     A
Quiero que sepas


D      G         C
Sólo quiero caminar
     G             D
Por la orilla del mar
    G        C
Vestida de azul
       A            Pre solo
Y quiero que estés tú


Pre solo :

e ----------------------22--------------------
B -15-15--15-15-15-15------15--15-15-15-15----
G --------------------------------------------
D --------------------------------------------
A --------------------------------------------
E --------------------------------------------


Solo :

e -20-20-19-19-15-15-12-12-15--14-14-------------------------
B -----------------------------------15-15-12-12-------12----
G -----------------------------------------------14-14-------
D -----------------------------------------------------------
A -----------------------------------------------------------
E ----------------------------------------------------------- x2

e -------------------------------12········---------------------
B -------------12··15············----------15···········10···---
G -12··········-------------------------------------------------
D --------------------------------------------------------------
A --------------------------------------------------------------
E --------------------------------------------------------------


Coro :

D      G         C
Sólo quiero caminar
     G             D
Por la orilla del mar
    G        C
Vestida de azul
     A
Quiero que sepas


D      G         C
Sólo quiero caminar
     G             D
Por la orilla del mar
    G        C
Vestida de azul
       A            Intro
Y quiero que estés tú

e --------14-15-14-----------------15--14--15---------------
B -15·····---------15----1515··15---------------------------
G --------------------14-----------------------14-12-11-----
D ----------------------------------------------------------
A ----------------------------------------------------------
E ----------------------------------------------------------
                                               Sólo tú
e -----------------------------------------
B -15--------------------------------------
G -----12-11----12-11-----9-9-11-----------
D -----------12-------12---------12~~~~~~--
A -----------------------------------------
E -----------------------------------------


                                                       FIN

Cualquier cosa a mi mail jc_xj@hotmail.com





Calificar esta versión:
Aviso: Este fichero es trabajo propio de su transcriptor y representa su interpretación personal de la canción. El material contenido en esta página es para exclusivo uso privado, por lo que se prohibe su reproducción o retransmisión, así como su uso para fines comerciales.