Sexy, Belanova (tablatura)

Autor: jcc666 | 17659 visualizaciones



Hola a todos , aquí esta Sexy de Belanova .

Nota - Esta canción me la rechazaron en lacuerda.net/ talvez por ser en ingles por eso lo puse en esta buena pagina .

     - Los acordes que están entre [ ] solo se rasguean una vez .

       El Riff que este entre [ ] quiere decir que empieza 
       en [ y termina en ] y el Riff se toca 2 o mas veces .

Acordes :

        E A D G B e
C5    = x 3 5 x x x
D5    = x 5 7 x x x
E5    = x 7 9 x x x
G5    = x 1012x x x
Em    = 0 2 2 0 0 0
Am    = x 0 2 2 1 0
Dadd9 = x x 0 2 3 x

Intro y Riff 1 :

e -----------------
B -----------------
G -----------------
D --9---7----------
A --7---5-7---7-7--
E --------5---5-5--


        Riff 2 :

e ----------------
B ----------------
G ----------------
D -------------9--
A --1010--9-9--7--
E --8-8---7-7-----


Verso :

[ Riff 1 ...

Sexy, oh
You look so sexy, oh
You look so sexy, baby
You blow my mind

Yeah, yeah
Yeah, yeah, yeah

Sexy, oh
I think you're sexy, oh
'Cause you're so sexy, baby
You blow my mind


Teclado :

e -20-19-17----17--------17--------------------------------------------------
B ----------20----17--20----17--20-17----------------------------------------
G --------------------------------------17-16-14----14--------14-------------
D -----------------------------------------------17----14--17----14--17-14---
A ---------------------------------------------------------------------------
E ---------------------------------------------------------------------------


'Cause if somebody ask me
Who do I love?
I will say your name
Mmm... Who cares?

                ...Riff 1 ]


Coro :

C5      D5      E5   D5
You're mine and I'm yours
        C5         D5       E5  G5
'Cause baby we're meant to be
C5      D5      E5   D5
You're mine and I'm yours
        C5         D5       E5  G5
'Cause baby we're meant to be

Rif 2 : 2 veces


Verso :

[Em]
Sexy, oh
            [Am]
You look so sexy, oh
            [Em]
You look so sexy, baby
            [Dadd9]
You blow my mind

Yeah, yeah, yeah, yeah


[ Riff 1 ...

Sexy, oh
I think you're sexy, oh
'Cause you're so sexy, baby
You blow my mind

                ...Riff 1 ]


Coro :

C5      D5      E5   D5
You're mine and I'm yours
        C5         D5       E5  G5
'Cause baby we're meant to be
C5      D5      E5   D5
You're mine and I'm yours
        C5         D5       E5  G5
'Cause baby we're meant to be

C5               D5    E5               D5
  We are the same one    we are the same one
C5               D5    E5               G5
  We are the same one    we are the same one


[ Riff 2 ...

We are meant to be and always will
We are meant to be and always will
We are meant to be and always will
We are meant to be and always will

                                  ...Riff 2 ]

                                                       FIN

Cualquier cosa a mi email .





Calificar esta versión:
Aviso: Este fichero es trabajo propio de su transcriptor y representa su interpretación personal de la canción. El material contenido en esta página es para exclusivo uso privado, por lo que se prohibe su reproducción o retransmisión, así como su uso para fines comerciales.